American Woman by Chad Allan - The Guess Who

You may also like:

Sponsored by Google

American Woman by The Guess Who

Gtr I (D G D G B D) - 'Acoustic Guitar'
Gtr II (E A D G B E) - 'Clean Electric Guitar '
Gtr III (E A D G B E) - 'Electric Guitar w/ light distortion'
Gtr IV (E A D G B E) - 'Electric Guitar w/ distortion'


 Prelude
  Q=107(8=s8)
       G                   G7  Gb7 F7      G                    G7  Gb7 F7
 4/4
  Gtr I (Ac. Gtr. w/ Open G Tuning - DGDGBD)
  H       H          +Q    E E E E E E     W                 Q  E E E E E E   4x
|----------------|---------3-3-2-2-1-1-||--0---------------|----3-3-2-2-1-1---||
|-------<12>-----|-(<12>)--3-3-2-2-1-1-||o-0---------------|----3-3-2-2-1-1--o||
|-------<12>-----|-(<12>)--4-4-3-3-2-2-||--0---------------|----4-4-3-3-2-2---||
|-------<12>-----|-(<12>)--------------||--0-0-2-0-0-0-2-0-|-0----------------||
|------(<12>)----|-(<12>)--------------||o-0-0-0-0-0-0-0-0-|-0---------------o||
|----------------|---------------------||------------------|------------------||
                                           E E E E E E E E   W


  G                         C   BbG                               C   BbG
  W                 E E E E E E E E   +W                  E E E E E E E E
|-0---------------|-----0-0-5---3-0-|-(0)---------------|-----0-0-5---3-0-|
|-0---------------|-----0-0-5---3-0-|-(0)---------------|-----0-0-5---3-0-|
|-0---------------|-----0-0-5---3-0-|-(0)---------------|-----0-0-5---3-0-|
|-0-0-2-0-0-0-2-0-|-0-0-0-----------|--0--0-2-0-0-0-2-0-|-0-0-0-----------|
|-0-0-0-0-0-0-0-0-|-0-0-0-0-5-0-0-0-|--0--0-0-0-0-0-0-0-|-0-0-0-0-5-0-0-0-|
|-----------------|-----------------|-------------------|-----------------|
  E E E E E E E E                      E  E E E E E E E


                              C   BbG                               C   BbG
  +W                  E E E E E E E E   +W                  E E E E E E E E
|-(0)---------------|-----0-0-5---3-0-|-(0)---------------|-----0-0-5---3-0-|
|-(0)---------------|-----0-0-5---3-0-|-(0)---------------|-----0-0-5---3-0-|
|-(0)---------------|-----0-0-5---3-0-|-(0)---------------|-----0-0-5---3-0-|
|--0--0-2-0-0-0-2-0-|-0-0-0-----------|--0--0-2-0-0-0-2-0-|-0-0-0-----------|
|--0--0-0-0-0-0-0-0-|-0-0-0-0-5-0-0-0-|--0--0-0-0-0-0-0-0-|-0-0-0-0-5-0-0-0-|
|-------------------|-----------------|-------------------|-----------------|
   E  E E E E E E E                      E  E E E E E E E


            F/GG                     C     Bb  G
  +E  E E E  E  E  E  E     E  E E E  E  E  E  E
|-----------10-12-12-12-|-(12)---0-0--5-----3--0-|
|-(0)-------10-12-12-12-|-(12)---0-0--5-----3--0-|
|-(0)-------10-12-12-12-|--------0-0--5-----3--0-|
|-(0)-0-0-0-------------|---0--0-0-0-(0)-0-(0)-0-|
|-----0-0-0--0--0--0--0-|---0--0-0-0--0--0--0--0-|
|-----------------------|------------------------|


            F/GG                     C     Bb  G
  +E  E E E  E  E  E  E     E  E E E  E  E  E  E
|-----------10-12-12-12-|-(12)---0-0--5-----3--0-|
|-(0)-------10-12-12-12-|-(12)---0-0--5-----3--0-|
|-(0)-------10-12-12-12-|--------0-0--5-----3--0-|
|-(0)-0-0-0-------------|---0--0-0-0-(0)-0-(0)-0-|
|-----0-0-0--0--0--0--0-|---0--0-0-0--0--0--0--0-|
|-----------------------|------------------------|


            F/GG                     C     Bb  G
  +E  E E E  E  E  E  E     E  E E E  E  E  E  E
|-----------10-12-12-12-|-(12)---0-0--5-----3--0-|
|-(0)-------10-12-12-12-|-(12)---0-0--5-----3--0-|
|-(0)-------10-12-12-12-|--------0-0--5-----3--0-|
|-(0)-0-0-0-------------|---0--0-0-0-(0)-0-(0)-0-|
|-----0-0-0--0--0--0--0-|---0--0-0-0--0--0--0--0-|
|-----------------------|------------------------|


            F/GG                     C     Bb  G
  +E  E E E  E  E  E  E     E  E E E  E  E  E  E
|-----------10-12-12-12-|-(12)---0-0--5-----3--0-|
|-(0)-------10-12-12-12-|-(12)---0-0--5-----3--0-|
|-(0)-------10-12-12-12-|--------0-0--5-----3--0-|
|-(0)-0-0-0-------------|---0--0-0-0-(0)-0-(0)-0-|
|-----0-0-0--0--0--0--0-|---0--0-0-0--0--0--0--0-|
|-----------------------|------------------------|


                         G7  Gb7 F7    G                    G7  Gb7 F7
  +W                  Q  E E E E E E   W                 Q  E E E E E E
|-(0)---------------|----3-3-2-2-1-1-|-0---------------|----3-3-2-2-1-1-|
|-(0)---------------|----3-3-2-2-1-1-|-0---------------|----3-3-2-2-1-1-|
|-(0)---------------|----4-4-3-3-2-2-|-0---------------|----4-4-3-3-2-2-|
|--0--0-2-0-0-0-2-0-|-0--------------|-0-0-2-0-0-0-2-0-|-0--------------|
|--0--0-0-0-0-0-0-0-|-0--------------|-0-0-0-0-0-0-0-0-|-0--------------|
|-------------------|----------------|-----------------|----------------|
   E  E E E E E E E   W                E E E E E E E E   W


                    ritardando Q=97(8Q=60    Q=92(8=s8)
  G                    G7  Gb7 F7    G       B5  D5
                                             Gtr II (Clean El. Gtr.)
  W                 Q  E E E E E E   H.      S S E
|-0---------------|----3-3-2-2-1-1-|-0--------------||
|-0---------------|----3-3-2-2-1-1-|-0--------------||
|-0---------------|----4-4-3-3-2-2-|-0--------------||
|-0-0-2-0-0-0-2-0-|-0--------------|-0-------4---7--||
|-0-0-0-0-0-0-0-0-|-0--------------|-0-------2---5--||
|-----------------|----------------|----------------||
| E E E E E E E E   W
|
| Gtr III (El. Gtr. w/ light dist.)
| W                 W                H.      E   E
|-----------------|----------------|----------------||
|-----------------|----------------|----------------||
|-----------------|----------------|---------4---7--||
|-----------------|----------------|---------4---7--||
|-----------------|----------------|---------2---5--||
|-----------------|----------------|----------------||


 Intro
  E           D E         B   D   E                  B   D
  S S S S S S S S S S E   S S E   S S S S E   S S Q  S S E
|-------------------------------|--------------------------|
|-------------------------------|--------------------------|
|-------------------------------|--------------------------|
|-----------------------------7-|------------------------7-|
|-7-7-7-7-7---5-7---7-7---9---5-|-7-7-7-7-7---7-7----9---5-|
|-------------------------7-----|--------------------7-----|
|
| S S S S S S S S S S S S S S E   S S S S S S S S Q  S S E
|-------------------------------|--------------------------|
|-9-9-9-9-9---7-9---9-9---4---7-|-9-9-9-9-9---9-9----4---7-|
|-9-9-9-9-9---7-9---9-9---4---7-|-9-9-9-9-9---9-9----4---7-|
|-9-9-9-9-9---7-9---9-9---4---7-|-9-9-9-9-9---9-9----4---7-|
|-7-7-7-7-7---5-7---7-7---2---5-|-7-7-7-7-7---7-7----2---5-|
|-------------------------------|--------------------------|


  E           D E           B   D   E           D E           B   D
  S S S S E   S S +S  S E   S S E   S S S S E   S S +S  S E   S S  E
|---------------------------------|----------------------------------||
|---------------------------------|----------------------------------||
|---------------------------------|----------------------------------||
|-------------------------------7-|--------------------------------7-||
|-7-7-7-7-7---5-7-(7)-7-7---9---5-|-7-7-7-7-7---5-7-(7)-7-7---9----5-||
|---------------------------7-----|---------------------------7------||
|
| S S S S S S S S  S  S S S S S E   S S S S S S S S  S  S S S S S  E
|---------------------------------|----------------------------------||
|-9-9-9-9-9---7-9-----9-9---4---7-|-9-9-9-9-9---7-9-----9-9---4----7-||
|-9-9-9-9-9---7-9-----9-9---4---7-|-9-9-9-9-9---7-9-----9-9---4----7-||
|-9-9-9-9-9---7-9-----9-9---4---7-|-9-9-9-9-9---7-9-----9-9---4----7-||
|-7-7-7-7-7---5-7-----7-7---2---5-|-7-7-7-7-7---5-7-----7-7---2----5-||
|---------------------------------|----------------------------------||
|
| Gtr IV (El. Gtr. w/ dist.)
| W                                 H                Q        E    E
|---------------------------------|----------------------------------||
|---------------------------------|----------------------------------||
|---------------------------------|---------------------------9---11-||
|---------------------------------|----------------------------------||
|---------------------------------|----------------------------------||
|---------------------------------|----------------------------------||


   Interlude
    E                 D E           B    D
     S  S  S S   E    S S +S  S E    S S  E
||------------------------------------------|
||o-----------------------------------------|
||------------------------------------------|
||----------------------------------------7-|
||o--7--7--7-7---7----5-7-(7)-7-7----9----5-|
||-----------------------------------7------|
|
|    S  S  S S   S  S S S  S  S S S  S S  E
||------------------------------------------|
||o--9--9--9-9---9----7-9-----9-9----4----7-|
||---9--9--9-9---9----7-9-----9-9----4----7-|
||---9--9--9-9---9----7-9-----9-9----4----7-|
||o--7--7--7-7---7----5-7-----7-7----2----5-|
||------------------------------------------|
|
|       ~~~~~~~~~~~~
|    S  E.      +H                   E    E
||------------------------------------------|
||o-----------------------------------------|
||--11s13------(13)-----------------13s==14-|
||------------------------------------------|
||o-----------------------------------------|
||------------------------------------------|


  E            D E            B     D
   S S S S E   S S  +S  S E    S  S  E
|------------------------------------------|
|------------------------------------------|
|------------------------------------------|
|------------------------------------7-----|
|--7-7-7-7-7---5-7--(7)-7-7----9-----5-----|
|------------------------------7-----------|
|
|  S S S S S S S S   S  S S S  S  S  E
|------------------------------------------|
|--9-9-9-9-9---7-9------9-9----4-----7-----|
|--9-9-9-9-9---7-9------9-9----4-----7-----|
|--9-9-9-9-9---7-9------9-9----4-----7-----|
|--7-7-7-7-7---5-7------7-7----2-----5-----|
|------------------------------------------|
|
|  ~~~~~~~~~~~~~~~~~~~~~                ~~
|  H                +E    E    S  S  S  S
|------------------------------------------|
|-12---------------(12)-------15-----------|
|-----------------------------------12s13--|
|--------------------------------14--------|
|------------------------------------------|
|------------------------------------------|


  E              D E           B     D
    S  S S S E   S S +S  S E    S  S  E
|------------------------------------------|
|------------------------------------------|
|------------------------------------------|
|-------------------------------------7----|
|---7--7-7-7-7---5-7-(7)-7-7----9-----5----|
|-------------------------------7----------|
|
|   S  S S S S S S S  S  S S S  S  S  E
|------------------------------------------|
|---9--9-9-9-9---7-9-----9-9----4-----7----|
|---9--9-9-9-9---7-9-----9-9----4-----7----|
|---9--9-9-9-9---7-9-----9-9----4-----7----|
|---7--7-7-7-7---5-7-----7-7----2-----5----|
|------------------------------------------|
|
|   ~~~~                                 ~~~
|  +H.                          S  S  S  S
|------------------------------16----------|
|------------------------------------14s15-|
|-(13)----------------------------16-------|
|------------------------------------------|
|------------------------------------------|
|------------------------------------------|


  E              D E           B   D
    S  S S S E   S S +S  S E   S S E
|------------------------------------||
|------------------------------------||
|------------------------------------||
|----------------------------------7-||
|---7--7-7-7-7---5-7-(7)-7-7---9---5-||
|------------------------------7-----||
|
|   S  S S S S S S S  S  S S S S S E
|------------------------------------||
|---9--9-9-9-9---7-9-----9-9---4---7-||
|---9--9-9-9-9---7-9-----9-9---4---7-||
|---9--9-9-9-9---7-9-----9-9---4---7-||
|---7--7-7-7-7---5-7-----7-7---2---5-||
|------------------------------------||
|
|~~~~~~
|  +W
|------------------------------------||
|-(15)-------------------------------||
|------------------------------------||
|------------------------------------||
|------------------------------------||
|------------------------------------||


 1st - 3rd Verses
  $
  E           D E           B   D   E           D E           B   D
  S S S S E   S S +S  S E   S S E   S S S S E   S S +S  S E   S S E
|---------------------------------|---------------------------------|
|---------------------------------|---------------------------------|
|---------------------------------|---------------------------------|
|-------------------------------7-|-------------------------------7-|
|-7-7-7-7-7---5-7-(7)-7-7---9---5-|-7-7-7-7-7---5-7-(7)-7-7---9---5-|
|---------------------------7-----|---------------------------7-----|
|
| S S S S S S S S  S  S S S S S E   S S S S S S S S  S  S S S S S E
|---------------------------------|---------------------------------|
|-9-9-9-9-9---7-9-----9-9---4---7-|-9-9-9-9-9---7-9-----9-9---4---7-|
|-9-9-9-9-9---7-9-----9-9---4---7-|-9-9-9-9-9---7-9-----9-9---4---7-|
|-9-9-9-9-9---7-9-----9-9---4---7-|-9-9-9-9-9---7-9-----9-9---4---7-|
|-7-7-7-7-7---5-7-----7-7---2---5-|-7-7-7-7-7---5-7-----7-7---2---5-|
|---------------------------------|---------------------------------|


  E           D E           B   D   E           D E           B   D
  S S S S E   S S +S  S E   S S E   S S S S E   S S +S  S E   S S E
|---------------------------------|---------------------------------|
|---------------------------------|---------------------------------|
|---------------------------------|---------------------------------|
|-------------------------------7-|-------------------------------7-|
|-7-7-7-7-7---5-7-(7)-7-7---9---5-|-7-7-7-7-7---5-7-(7)-7-7---9---5-|
|---------------------------7-----|---------------------------7-----|
|
| S S S S S S S S  S  S S S S S E   S S S S S S S S  S  S S S S S E
|---------------------------------|---------------------------------|
|-9-9-9-9-9---7-9-----9-9---4---7-|-9-9-9-9-9---7-9-----9-9---4---7-|
|-9-9-9-9-9---7-9-----9-9---4---7-|-9-9-9-9-9---7-9-----9-9---4---7-|
|-9-9-9-9-9---7-9-----9-9---4---7-|-9-9-9-9-9---7-9-----9-9---4---7-|
|-7-7-7-7-7---5-7-----7-7---2---5-|-7-7-7-7-7---5-7-----7-7---2---5-|
|---------------------------------|---------------------------------|


  E           D E           B   D   E           D E           B   D
  S S S S E   S S +S  S E   S S E   S S S S E   S S +S  S E   S S E
|---------------------------------|---------------------------------|
|---------------------------------|---------------------------------|
|---------------------------------|---------------------------------|
|-------------------------------7-|-------------------------------7-|
|-7-7-7-7-7---5-7-(7)-7-7---9---5-|-7-7-7-7-7---5-7-(7)-7-7---9---5-|
|---------------------------7-----|---------------------------7-----|
|
| S S S S S S S S  S  S S S S S E   S S S S S S S S  S  S S S S S E
|---------------------------------|---------------------------------|
|-9-9-9-9-9---7-9-----9-9---4---7-|-9-9-9-9-9---7-9-----9-9---4---7-|
|-9-9-9-9-9---7-9-----9-9---4---7-|-9-9-9-9-9---7-9-----9-9---4---7-|
|-9-9-9-9-9---7-9-----9-9---4---7-|-9-9-9-9-9---7-9-----9-9---4---7-|
|-7-7-7-7-7---5-7-----7-7---2---5-|-7-7-7-7-7---5-7-----7-7---2---5-|
|---------------------------------|---------------------------------|


  E           D E           B   D   E           D E           B   D
  S S S S E   S S +S  S E   S S E   S S S S E   S S +S  S E   S S E
|---------------------------------|---------------------------------|
|---------------------------------|---------------------------------|
|---------------------------------|---------------------------------|
|-------------------------------7-|-------------------------------7-|
|-7-7-7-7-7---5-7-(7)-7-7---9---5-|-7-7-7-7-7---5-7-(7)-7-7---9---5-|
|---------------------------7-----|---------------------------7-----|
|
| S S S S S S S S  S  S S S S S E   S S S S S S S S  S  S S S S S E
|---------------------------------|---------------------------------|
|-9-9-9-9-9---7-9-----9-9---4---7-|-9-9-9-9-9---7-9-----9-9---4---7-|
|-9-9-9-9-9---7-9-----9-9---4---7-|-9-9-9-9-9---7-9-----9-9---4---7-|
|-9-9-9-9-9---7-9-----9-9---4---7-|-9-9-9-9-9---7-9-----9-9---4---7-|
|-7-7-7-7-7---5-7-----7-7---2---5-|-7-7-7-7-7---5-7-----7-7---2---5-|
|---------------------------------|---------------------------------|


  E           D E           B   D   E           D E           B   D
  S S S S E   S S +S  S E   S S E   S S S S E   S S +S  S E   S S E
|---------------------------------|---------------------------------|
|---------------------------------|---------------------------------|
|---------------------------------|---------------------------------|
|-------------------------------7-|-------------------------------7-|
|-7-7-7-7-7---5-7-(7)-7-7---9---5-|-7-7-7-7-7---5-7-(7)-7-7---9---5-|
|---------------------------7-----|---------------------------7-----|
|
| S S S S S S S S  S  S S S S S E   S S S S S S S S  S  S S S S S E
|---------------------------------|---------------------------------|
|-9-9-9-9-9---7-9-----9-9---4---7-|-9-9-9-9-9---7-9-----9-9---4---7-|
|-9-9-9-9-9---7-9-----9-9---4---7-|-9-9-9-9-9---7-9-----9-9---4---7-|
|-9-9-9-9-9---7-9-----9-9---4---7-|-9-9-9-9-9---7-9-----9-9---4---7-|
|-7-7-7-7-7---5-7-----7-7---2---5-|-7-7-7-7-7---5-7-----7-7---2---5-|
|---------------------------------|---------------------------------|


                                                              To Coda
  E           D E           B   D   E           D E           B   D
  S S S S E   S S +S  S E   S S E   S S S S E   S S +S  S E   S S  E
|---------------------------------|------------------------------------||
|---------------------------------|-----------------------------------o||
|---------------------------------|------------------------------------||
|-------------------------------7-|--------------------------------7---||
|-7-7-7-7-7---5-7-(7)-7-7---9---5-|-7-7-7-7-7---5-7-(7)-7-7---9----5--o||
|---------------------------7-----|---------------------------7--------||
|
| S S S S S S S S  S  S S S S S E   S S S S S S S S  S  S S S S S  E
|---------------------------------|------------------------------------||
|-9-9-9-9-9---7-9-----9-9---4---7-|-9-9-9-9-9---7-9-----9-9---4----7--o||
|-9-9-9-9-9---7-9-----9-9---4---7-|-9-9-9-9-9---7-9-----9-9---4----7---||
|-9-9-9-9-9---7-9-----9-9---4---7-|-9-9-9-9-9---7-9-----9-9---4----7---||
|-7-7-7-7-7---5-7-----7-7---2---5-|-7-7-7-7-7---5-7-----7-7---2----5--o||
|---------------------------------|------------------------------------||
|
| Gtr IV
| W                                 H                Q        E    E
|---------------------------------|------------------------------------||
|---------------------------------|-----------------------------------o||
|---------------------------------|---------------------------9h==11---||
|---------------------------------|------------------------------------||
|---------------------------------|-----------------------------------o||
|---------------------------------|------------------------------------||


 Guitar Solo
  E                   D E             B   D
   S     S   S  S E   S S  +S   S E   S S E
|-------------------------------------------|
|-------------------------------------------|
|-------------------------------------------|
|-----------------------------------------7-|
|--7-----7---7--7-7---5-7--(7)--7-7---9---5-|
|-------------------------------------7-----|
|
|  S     S   S  S S S S S   S   S S S S S E
|-------------------------------------------|
|--9-----9---9--9-9---7-9-------9-9---4---7-|
|--9-----9---9--9-9---7-9-------9-9---4---7-|
|--9-----9---9--9-9---7-9-------9-9---4---7-|
|--7-----7---7--7-7---5-7-------7-7---2---5-|
|-------------------------------------------|
|
|            ~~~~~~~~~~~~~~~~~~~
|  E        +Q.            +H
|-------------------------------------------|
|-------------------------------------------|
|-11b13====(11)-----------(11)r-------------|
|-------------------------------------------|
|-------------------------------------------|
|-------------------------------------------|


  E                        D E           B   D
   S          S    S S E   S S +S  S E   S S E
|-----------------------------------------------|
|-----------------------------------------------|
|-----------------------------------------------|
|--------------------------------------------7--|
|--7----------7----7-7-7---5-7-(7)-7-7---9---5--|
|----------------------------------------7------|
|
|  S          S    S S S S S S  S  S S S S S E
|-----------------------------------------------|
|--9----------9----9-9-9---7-9-----9-9---4---7--|
|--9----------9----9-9-9---7-9-----9-9---4---7--|
|--9----------9----9-9-9---7-9-----9-9---4---7--|
|--7----------7----7-7-7---5-7-----7-7---2---5--|
|-----------------------------------------------|
|
|                      ~~~~~~~~~~~~
|  |-----3------|
|  S      +S    S  E   Q       +Q.           E
|-----------------------------------------------|
|-----------------------------------------------|
|-11pb13r(11)p==9-11---9-------(9)--------------|
|-----------------------------------------------|
|-----------------------------------------------|
|-----------------------------------------------|


  E                   D E             B   D
   S     S   S  S E   S S  +S   S E   S S E
|-------------------------------------------|
|-------------------------------------------|
|-------------------------------------------|
|-----------------------------------------7-|
|--7-----7---7--7-7---5-7--(7)--7-7---9---5-|
|-------------------------------------7-----|
|
|  S     S   S  S S S S S   S   S S S S S E
|-------------------------------------------|
|--9-----9---9--9-9---7-9-------9-9---4---7-|
|--9-----9---9--9-9---7-9-------9-9---4---7-|
|--9-----9---9--9-9---7-9-------9-9---4---7-|
|--7-----7---7--7-7---5-7-------7-7---2---5-|
|-------------------------------------------|
|
|            ~~~~~~~~~~~~~~~~~~~
|  E        +Q.            +H
|-------------------------------------------|
|-------------------------------------------|
|-14b16====(14)-----------(14)r-------------|
|-------------------------------------------|
|-------------------------------------------|
|-------------------------------------------|


  E                              D    E            B      D
   S          S     S S  E         S  S  +S  S E     S  S E
|----------------------------------------------------------------|
|----------------------------------------------------------------|
|----------------------------------------------------------------|
|---------------------------------------------------------7------|
|--7----------7-----7-7--7---------5--7--(7)-7-7-----9----5------|
|----------------------------------------------------7-----------|
|
|  S          S     S S  S     S   S  S   S  S S S   S  S E
|----------------------------------------------------------------|
|--9----------9-----9-9--9---------7--9------9-9-----4----7------|
|--9----------9-----9-9--9---------7--9------9-9-----4----7------|
|--9----------9-----9-9--9---------7--9------9-9-----4----7------|
|--7----------7-----7-7--7---------5--7------7-7-----2----5------|
|----------------------------------------------------------------|
|
|                                  ~~~~~~~~~~~~~~~~~~~~~~
|  |------3------|
|  S      +S     S  E    E        +E     +Q         +E.      +S
|----------------------------------------------------------------|
|----------------------------------------------------------------|
|-14pb16r(14)p==12-14---12b13====(12)---(12)-------(12)r====(12)-|
|----------------------------------------------------------------|
|----------------------------------------------------------------|
|----------------------------------------------------------------|


  E                   D E             B     D
   S     S   S  S E   S S  +S   S E    S  S  E
|-------------------------------------------------|
|-------------------------------------------------|
|-------------------------------------------------|
|--------------------------------------------7----|
|--7-----7---7--7-7---5-7--(7)--7-7----9-----5----|
|--------------------------------------7----------|
|
|  S     S   S  S S S S S   S   S S S  S  S  E
|-------------------------------------------------|
|--9-----9---9--9-9---7-9-------9-9----4-----7----|
|--9-----9---9--9-9---7-9-------9-9----4-----7----|
|--9-----9---9--9-9---7-9-------9-9----4-----7----|
|--7-----7---7--7-7---5-7-------7-7----2-----5----|
|-------------------------------------------------|
|
|            ~~~~~~~~~~~~~~~~~~~                ~~~
|  E        +Q.            +Q          S  S  S  S
|-------------------------------------------------|
|-------------------------------------15----------|
|-14b16====(14)-----------(14)r-------------12s13-|
|----------------------------------------14-------|
|-------------------------------------------------|
|-------------------------------------------------|


  E              D E                    B       D
    S  S S S E   S S  +S   S    E        S    S  E
|-----------------------------------------------------|
|-----------------------------------------------------|
|-----------------------------------------------------|
|------------------------------------------------7----|
|---7--7-7-7-7---5-7--(7)--7----7--------9-------5----|
|----------------------------------------7------------|
|
|   S  S S S S S S S   S   S    S  S     S    S  E
|-----------------------------------------------------|
|---9--9-9-9-9---7-9-------9----9--------4-------7----|
|---9--9-9-9-9---7-9-------9----9--------4-------7----|
|---9--9-9-9-9---7-9-------9----9--------4-------7----|
|---7--7-7-7-7---5-7-------7----7--------2-------5----|
|-----------------------------------------------------|
|
|~~~~~~~~~~~~~~~~~~~~~~~~~
|  +H                 +S   E       S     E       E
|-----------------------------------------------------|
|-------------------------14b15---14b15-14b15---14b15-|
|-(13)---------------(13)-----------------------------|
|-----------------------------------------------------|
|-----------------------------------------------------|
|-----------------------------------------------------|


  E                   D E             B     D
   S     S   S  S E   S S  +S   S E    S  S  E
|-------------------------------------------------|
|-------------------------------------------------|
|-------------------------------------------------|
|--------------------------------------------7----|
|--7-----7---7--7-7---5-7--(7)--7-7----9-----5----|
|--------------------------------------7----------|
|
|  S     S   S  S S S S S   S   S S S  S  S  E
|-------------------------------------------------|
|--9-----9---9--9-9---7-9-------9-9----4-----7----|
|--9-----9---9--9-9---7-9-------9-9----4-----7----|
|--9-----9---9--9-9---7-9-------9-9----4-----7----|
|--7-----7---7--7-7---5-7-------7-7----2-----5----|
|-------------------------------------------------|
|
|            ~~~~~~~~~~~~~~~~~~~                ~~~
|  E        +Q.            +Q          S  S  S  S
|-------------------------------------------------|
|-------------------------------------15----------|
|-14b16====(14)-----------(14)r-------------12s13-|
|----------------------------------------14-------|
|-------------------------------------------------|
|-------------------------------------------------|


  E              D E                    B    D
    S  S S S E   S S  +S      S E        S S  E
|-----------------------------------------------|
|-----------------------------------------------|
|-----------------------------------------------|
|---------------------------------------------7-|
|---7--7-7-7-7---5-7--(7)-----7-7--------9----5-|
|----------------------------------------7------|
|
|   S  S S S S S S S   S      S S  S     S S  E
|-----------------------------------------------|
|---9--9-9-9-9---7-9----------9-9--------4----7-|
|---9--9-9-9-9---7-9----------9-9--------4----7-|
|---9--9-9-9-9---7-9----------9-9--------4----7-|
|---7--7-7-7-7---5-7----------7-7--------2----5-|
|-----------------------------------------------|
|
|~~~~~~~~~~~~~~~~~~~~~~~~~
|  +H                 +S   a  S S  s  a  e    e
|-----------------------------------------------|
|-------------------------15s16---17-15s17---17-|
|-(13)---------------(13)-----------------------|
|-----------------------------------------------|
|-----------------------------------------------|
|-----------------------------------------------|


  E                 D E              B    D
   S  S  S S   E    S S  +S   S E     S S  E
|--------------------------------------------|
|--------------------------------------------|
|--------------------------------------------|
|------------------------------------------7-|
|--7--7--7-7---7----5-7--(7)--7-7-----9----5-|
|-------------------------------------7------|
|
|  S  S  S S   S  S S S   S   S S  S  S S  E
|--------------------------------------------|
|--9--9--9-9---9----7-9-------9-9-----4----7-|
|--9--9--9-9---9----7-9-------9-9-----4----7-|
|--9--9--9-9---9----7-9-------9-9-----4----7-|
|--7--7--7-7---7----5-7-------7-7-----2----5-|
|--------------------------------------------|
|
|     ~~~~~~~~~~~~~~~~~~~~~~~
|  S  E.      +Q         +S   E    S  E    e
|------------------------------------15---17-|
|-15s17------(17)-------(17)-17---17---------|
|--------------------------------------------|
|--------------------------------------------|
|--------------------------------------------|
|--------------------------------------------|


  E                       D E                    B    D
   S    S S  S       E    S S  +S    S      E     S S  E
|--------------------------------------------------------|
|--------------------------------------------------------|
|--------------------------------------------------------|
|------------------------------------------------------7-|
|--7----7-7--7-------7----5-7--(7)---7------7-----9----5-|
|-------------------------------------------------7------|
|
|  S    S S  S       S  S S S   S    S      S  S  S S  E
|--------------------------------------------------------|
|--9----9-9--9-------9----7-9--------9------9-----4----7-|
|--9----9-9--9-------9----7-9--------9------9-----4----7-|
|--9----9-9--9-------9----7-9--------9------9-----4----7-|
|--7----7-7--7-------7----5-7--------7------7-----2----5-|
|--------------------------------------------------------|
|
|                    ~~~~~~~~~~~~~~~
|  E      S  S      +Q         +S    S     +S  S  E    E
|-17b19-----17b19==(17)-------(17)r-17b18r(17)---15---17-|
|--------------------------------------------------------|
|----------------------------------------------0---------|
|--------------------------------------------------------|
|--------------------------------------------------------|
|--------------------------------------------------------|


  E                     D E                 B    D
   S      S S  S   E    S S  +S   S     E    S S  E
|---------------------------------------------------|
|---------------------------------------------------|
|---------------------------------------------------|
|-------------------------------------------------7-|
|--7------7-7--7---7----5-7--(7)--7-----7----9----5-|
|--------------------------------------------7------|
|
|  S      S S  S   S  S S S   S   S     S S  S S  E
|---------------------------------------------------|
|--9------9-9--9---9----7-9-------9-----9----4----7-|
|--9------9-9--9---9----7-9-------9-----9----4----7-|
|--9------9-9--9---9----7-9-------9-----9----4----7-|
|--7------7-7--7---7----5-7-------7-----7----2----5-|
|---------------------------------------------------|
|
|              ~~~~~~~~~~~~~~~~~~
|  E.          S  +Q         +S   T  T  E    S S  E
|-15b15.5-------------------------------------------|
|-------------17-(17)-------(17)-15h17p15---14---12-|
|---------------------------------------------------|
|---------------------------------------------------|
|---------------------------------------------------|
|---------------------------------------------------|


  E                D E            B           D
   S     S S S E   S S  +S  S E     S    S    E
|-----------------------------------------------|
|-----------------------------------------------|
|-----------------------------------------------|
|---------------------------------------------7-|
|--7-----7-7-7-7---5-7--(7)-7-7-----9---------5-|
|-----------------------------------7-----------|
|
|  S     S S S S S S S   S  S S S   S    S    E
|-----------------------------------------------|
|--9-----9-9-9-9---7-9------9-9-----4---------7-|
|--9-----9-9-9-9---7-9------9-9-----4---------7-|
|--9-----9-9-9-9---7-9------9-9-----4---------7-|
|--7-----7-7-7-7---5-7------7-7-----2---------5-|
|-----------------------------------------------|
|
|  ~~~~~~~~~~~~~~~~~~~~~~~~~~~~~~~~~~~~~
|  H                    +Q         +S    E.
|-----------------------------------------------|
|-----------------------------------------------|
|-14b16================(14)-------(14)r-14b16---|
|-----------------------------------------------|
|-----------------------------------------------|
|-----------------------------------------------|


  E               D E           B    D
   S    S S S E   S S +S  S E    S S  E
|---------------------------------------|
|---------------------------------------|
|---------------------------------------|
|-------------------------------------7-|
|--7----7-7-7-7---5-7-(7)-7-7----9----5-|
|--------------------------------7------|
|
|  S    S S S S S S S  S  S S S  S S  E
|---------------------------------------|
|--9----9-9-9-9---7-9-----9-9----4----7-|
|--9----9-9-9-9---7-9-----9-9----4----7-|
|--9----9-9-9-9---7-9-----9-9----4----7-|
|--7----7-7-7-7---5-7-----7-7----2----5-|
|---------------------------------------|
|
|  ~~~~~
|  H.                            E    E
|---------------------------------------|
|-------------------------------12---14-|
|-14b16---------------------------------|
|---------------------------------------|
|---------------------------------------|
|---------------------------------------|


  E                      D E            B    D
   S      S   S  S E     S S  +S  S E    S S  E
|-----------------------------------------------|
|-----------------------------------------------|
|-----------------------------------------------|
|---------------------------------------------7-|
|--7------7---7--7-7-----5-7--(7)-7-7----9----5-|
|----------------------------------------7------|
|
|  S      S   S  S S  S  S S   S  S S S  S S  E
|-----------------------------------------------|
|--9------9---9--9-9-----7-9------9-9----4----7-|
|--9------9---9--9-9-----7-9------9-9----4----7-|
|--9------9---9--9-9-----7-9------9-9----4----7-|
|--7------7---7--7-7-----5-7------7-7----2----5-|
|-----------------------------------------------|
|
|                     ~~~~~~~~~~~~
|  S     +S   S  e    E.      +Q         E    E
|-----------------------------------------------|
|-14b15r(14)p12h14---12------(12)-------12---14-|
|-----------------------------------------------|
|-----------------------------------------------|
|-----------------------------------------------|
|-----------------------------------------------|


  E                   D E             B               D
   S     S   S  S E   S S  +S   S E    S         S     E
|--------------------------------------------------------|
|--------------------------------------------------------|
|--------------------------------------------------------|
|------------------------------------------------------7-|
|--7-----7---7--7-7---5-7--(7)--7-7----9---------------5-|
|--------------------------------------7-----------------|
|
|  S     S   S  S S S S S   S   S S S  S         S     E
|--------------------------------------------------------|
|--9-----9---9--9-9---7-9-------9-9----4---------------7-|
|--9-----9---9--9-9---7-9-------9-9----4---------------7-|
|--9-----9---9--9-9---7-9-------9-9----4---------------7-|
|--7-----7---7--7-7---5-7-------7-7----2---------------5-|
|--------------------------------------------------------|
|
|            ~~~~~~~~~~~~~~~~~~~
|                                      |-----3------|
|  E        +Q.            +Q          S     +S     S  E
|--------------------------------------------------------|
|-------------------------------------14b15r(14)p==12-14-|
|-14b16====(14)-----------(14)r--------------------------|
|--------------------------------------------------------|
|--------------------------------------------------------|
|--------------------------------------------------------|


  E              D E             B   D
   S S  S  S E   S S  +S   S E   S S E
|---------------------------------------||
|---------------------------------------||
|---------------------------------------||
|------------------------------------7--||
|--7-7--7--7-7---5-7--(7)--7-7---9---5--||
|--------------------------------7------||
|
|  S S  S  S S S S S   S   S S S S S E
|---------------------------------------||
|--9-9--9--9-9---7-9-------9-9---4---7--||
|--9-9--9--9-9---7-9-------9-9---4---7--||
|--9-9--9--9-9---7-9-------9-9---4---7--||
|--7-7--7--7-7---5-7-------7-7---2---5--||
|---------------------------------------||
|
|  E    Q.            +H
|---------------------------------------||
|-14s==17------------(17)\--------------||
|---------------------------------------||
|---------------------------------------||
|---------------------------------------||
|---------------------------------------||


   Interlude
    E           D E
    Gtrs II, III
    S S S S S S S S +E   E Q
||----------------------------|
||o-9-9-9-9-9---7-9-(9)\------|
||--9-9-9-9-9---7-9-(9)\------|
||--9-9-9-9-9---7-9-(9)\------|
||o-7-7-7-7-7---5-7-(7)\------|
||----------------------------|


 1.                            2.
                                           D.S. al Coda
              D E                           D E
  S S S S S S S S +E   E Q      S S S S S S S S +E   E Q
|----------------------------||----------------------------||
|-9-9-9-9-9---7-9-(9)\------o||-9-9-9-9-9---7-9-(9)\-------||
|-9-9-9-9-9---7-9-(9)\-------||-9-9-9-9-9---7-9-(9)\-------||
|-9-9-9-9-9---7-9-(9)\-------||-9-9-9-9-9---7-9-(9)\-------||
|-7-7-7-7-7---5-7-(7)\------o||-7-7-7-7-7---5-7-(7)\-------||
|----------------------------||----------------------------||


 Outro
  &
  E           D E           B   D   E           D E           B   D
  Gtr II
  S S S S E   S S +S  S E   S S E   S S S S E   S S +S  S E   S S E
|---------------------------------|---------------------------------|
|---------------------------------|---------------------------------|
|---------------------------------|---------------------------------|
|-------------------------------7-|-------------------------------7-|
|-7-7-7-7-7---5-7-(7)-7-7---9---5-|-7-7-7-7-7---5-7-(7)-7-7---9---5-|
|---------------------------7-----|---------------------------7-----|
|
| Gtr III
| S S S S S S S S  S  S S S S S E   S S S S S S S S  S  S S S S S E
|---------------------------------|---------------------------------|
|-9-9-9-9-9---7-9-----9-9---4---7-|-9-9-9-9-9---7-9-----9-9---4---7-|
|-9-9-9-9-9---7-9-----9-9---4---7-|-9-9-9-9-9---7-9-----9-9---4---7-|
|-9-9-9-9-9---7-9-----9-9---4---7-|-9-9-9-9-9---7-9-----9-9---4---7-|
|-7-7-7-7-7---5-7-----7-7---2---5-|-7-7-7-7-7---5-7-----7-7---2---5-|
|---------------------------------|---------------------------------|


  E           D E           B   D
  S S S S E   S S +S  S E   S S E
|---------------------------------|
|---------------------------------|
|---------------------------------|
|-------------------------------7-|
|-7-7-7-7-7---5-7-(7)-7-7---9---5-|
|---------------------------7-----|
|
| S S S S S S S S  S  S S S S S E
|---------------------------------|
|-9-9-9-9-9---7-9-----9-9---4---7-|
|-9-9-9-9-9---7-9-----9-9---4---7-|
|-9-9-9-9-9---7-9-----9-9---4---7-|
|-7-7-7-7-7---5-7-----7-7---2---5-|
|---------------------------------|
|
| Gtr IV
| W
|---------------------------------|
|---------------------------------|
|---------------------------------|
|---------------------------------|
|---------------------------------|
|---------------------------------|


  E           D E                B              D
  S S S S E   S S +S  S E          S       S     E
|-------------------------------------------------------|
|-------------------------------------------------------|
|-------------------------------------------------------|
|------------------------------------------------7------|
|-7-7-7-7-7---5-7-(7)-7-7----------9-------------5------|
|----------------------------------7--------------------|
|
| S S S S S S S S  S  S S  S       S       S     E
|-------------------------------------------------------|
|-9-9-9-9-9---7-9-----9-9----------4-------------7------|
|-9-9-9-9-9---7-9-----9-9----------4-------------7------|
|-9-9-9-9-9---7-9-----9-9----------4-------------7------|
|-7-7-7-7-7---5-7-----7-7----------2-------------5------|
|-------------------------------------------------------|
|
|                                  |----3-----|
| H                E    S  S      +S   +S     S  S   S
|-------------------------------------------------------|
|-------------------------14b15==(14)r(14)p==12-14------|
|-------------------------------------------------------|
|--------------------------------------------------(14)-|
|-------------------------------------------------------|
|-------------------------------------------------------|


  E            D E               B               D
   S S S S E   S S  +S   S  E     S         S     E
|---------------------------------------------------|
|---------------------------------------------------|
|---------------------------------------------------|
|-------------------------------------------------7-|
|--7-7-7-7-7---5-7--(7)--7--7-----9---------------5-|
|---------------------------------7-----------------|
|
|  S S S S S S S S   S   S  S  S  S         S     E
|---------------------------------------------------|
|--9-9-9-9-9---7-9-------9--9-----4---------------7-|
|--9-9-9-9-9---7-9-------9--9-----4---------------7-|
|--9-9-9-9-9---7-9-------9--9-----4---------------7-|
|--7-7-7-7-7---5-7-------7--7-----2---------------5-|
|---------------------------------------------------|
|
|  ~~~~~~~~~~~~~~~~~~~~~
|                                 |-----3------|
|  H                +S   S  S  S  S     +S     S  E
|-----------------------------12-14b15r(14)p==12-14-|
|-12---------------(12)-12h14-----------------------|
|---------------------------------------------------|
|---------------------------------------------------|
|---------------------------------------------------|
|---------------------------------------------------|


  E            D E             B               D
   S S S S E   S S +S   S  E    S         S     E
|--------------------------------------------------|
|--------------------------------------------------|
|--------------------------------------------------|
|-----------------------------------------------7--|
|--7-7-7-7-7---5-7-(7)--7--7----9---------------5--|
|-------------------------------7------------------|
|
|  S S S S S S S S  S   S  S S  S         S     E
|--------------------------------------------------|
|--9-9-9-9-9---7-9------9--9----4---------------7--|
|--9-9-9-9-9---7-9------9--9----4---------------7--|
|--9-9-9-9-9---7-9------9--9----4---------------7--|
|--7-7-7-7-7---5-7------7--7----2---------------5--|
|--------------------------------------------------|
|
|                               |-----3------|
|  H                S   S  e    S     +S     S  e
|-12---------------------------14b15r(14)p==12-14--|
|----------------------12-14-----------------------|
|--------------------------------------------------|
|--------------------------------------------------|
|--------------------------------------------------|
|--------------------------------------------------|


  E             D E           B   D
   S  S S S E   S S +S  S E   S S E
|-----------------------------------|
|-----------------------------------|
|-----------------------------------|
|---------------------------------7-|
|--7--7-7-7-7---5-7-(7)-7-7---9---5-|
|-----------------------------7-----|
|
|  S  S S S S S S S  S  S S S S S E
|-----------------------------------|
|--9--9-9-9-9---7-9-----9-9---4---7-|
|--9--9-9-9-9---7-9-----9-9---4---7-|
|--9--9-9-9-9---7-9-----9-9---4---7-|
|--7--7-7-7-7---5-7-----7-7---2---5-|
|-----------------------------------|
|
|  ~~~
|  H.                         Q
|-----------------------------------|
|-12--------------------------------|
|-----------------------------------|
|-----------------------------------|
|-----------------------------------|
|-----------------------------------|


  E                      D E            B   D
   S  S      S  S   E    S S  +S  S E   S S  E
|----------------------------------------------|
|----------------------------------------------|
|----------------------------------------------|
|--------------------------------------------7-|
|--7--7------7--7---7----5-7--(7)-7-7---9----5-|
|---------------------------------------7------|
|
|  S  S      S  S   S  S S S   S  S S S S S  E
|----------------------------------------------|
|--9--9------9--9---9----7-9------9-9---4----7-|
|--9--9------9--9---9----7-9------9-9---4----7-|
|--9--9------9--9---9----7-9------9-9---4----7-|
|--7--7------7--7---7----5-7------7-7---2----5-|
|----------------------------------------------|
|
|  S  E         S  +Q         +E    E   E    E
|-12----------------------------------------12-|
|----------------------------------------------|
|----12b12.5-----------------------------------|
|--------------14-(14)-------(14)--------------|
|----------------------------------------------|
|----------------------------------------------|


  E                  D E             B   D
   S    S S S   E    S  S  +S  S E   S S  E
|-------------------------------------------|
|-------------------------------------------|
|-------------------------------------------|
|-----------------------------------------7-|
|--7----7-7-7---7----5--7--(7)-7-7---9----5-|
|------------------------------------7------|
|
|  S    S S S   S  S S  S   S  S S S S S  E
|-------------------------------------------|
|--9----9-9-9---9----7--9------9-9---4----7-|
|--9----9-9-9---9----7--9------9-9---4----7-|
|--9----9-9-9---9----7--9------9-9---4----7-|
|--7----7-7-7---7----5--7------7-7---2----5-|
|-------------------------------------------|
|
|                       ~~~~~~~
|  Q           +E.      S  +Q        E    e
|----------------------------------------12-|
|-------------------------------------------|
|-12b13-------(12)--------------------------|
|----------------------14-(14)--------------|
|-------------------------------------------|
|-------------------------------------------|


  E                  D E             B   D
   S    S S S   E    S  S  +S  S E   S S  E
|-------------------------------------------|
|-------------------------------------------|
|-------------------------------------------|
|-----------------------------------------7-|
|--7----7-7-7---7----5--7--(7)-7-7---9----5-|
|------------------------------------7------|
|
|  S    S S S   S  S S  S   S  S S S S S  E
|-------------------------------------------|
|--9----9-9-9---9----7--9------9-9---4----7-|
|--9----9-9-9---9----7--9------9-9---4----7-|
|--9----9-9-9---9----7--9------9-9---4----7-|
|--7----7-7-7---7----5--7------7-7---2----5-|
|-------------------------------------------|
|
|                       ~~~~~~~
|  Q           +E.      S  +Q        E    e
|----------------------------------------12-|
|-------------------------------------------|
|-12b13-------(12)--------------------------|
|----------------------14-(14)--------------|
|-------------------------------------------|
|-------------------------------------------|


  E                  D E             B       D
   S    S S S   E    S  S  +S  S E   S  S      E
|-------------------------------------------------|
|-------------------------------------------------|
|-------------------------------------------------|
|----------------------------------------------7--|
|--7----7-7-7---7----5--7--(7)-7-7---9---------5--|
|------------------------------------7------------|
|
|  S    S S S   S  S S  S   S  S S S S  S      E
|-------------------------------------------------|
|--9----9-9-9---9----7--9------9-9---4---------7--|
|--9----9-9-9---9----7--9------9-9---4---------7--|
|--9----9-9-9---9----7--9------9-9---4---------7--|
|--7----7-7-7---7----5--7------7-7---2---------5--|
|-------------------------------------------------|
|
|                       ~~~~~~~
|  Q           +E.      S  +Q        S  S     +e
|--------------------------------------15b16-(15)-|
|-------------------------------------------------|
|-12b13-------(12)--------------------------------|
|----------------------14-(14)--------------------|
|-------------------------------------------------|
|-------------------------------------------------|


  E             D  E           B       D
   S  S S S E    S S +S  S E   S  S      E
|-------------------------------------------|
|-------------------------------------------|
|-------------------------------------------|
|----------------------------------------7--|
|--7--7-7-7-7----5-7-(7)-7-7---9---------5--|
|------------------------------7------------|
|
|  S  S S S S S  S S  S  S S S S  S      E
|-------------------------------------------|
|--9--9-9-9-9----7-9-----9-9---4---------7--|
|--9--9-9-9-9----7-9-----9-9---4---------7--|
|--9--9-9-9-9----7-9-----9-9---4---------7--|
|--7--7-7-7-7----5-7-----7-7---2---------5--|
|-------------------------------------------|
|
|  ~~~
|  Q.            E    Q        S  S     +e
|--------------------------------15b16-(15)-|
|-12------------14---15---------------------|
|-------------------------------------------|
|-------------------------------------------|
|-------------------------------------------|
|-------------------------------------------|


  E             D  E                 B           D
   S  S S S E    S S +S     S   E      S    S      E
|-----------------------------------------------------|
|-----------------------------------------------------|
|-----------------------------------------------------|
|--------------------------------------------------7--|
|--7--7-7-7-7----5-7-(7)----7---7------9-----------5--|
|--------------------------------------7--------------|
|
|  S  S S S S S  S S  S     S   S  S   S    S      E
|-----------------------------------------------------|
|--9--9-9-9-9----7-9--------9---9------4-----------7--|
|--9--9-9-9-9----7-9--------9---9------4-----------7--|
|--9--9-9-9-9----7-9--------9---9------4-----------7--|
|--7--7-7-7-7----5-7--------7---7------2-----------5--|
|-----------------------------------------------------|
|
|  Q.            E    E        +E     +S    S     +e
|------------------------------------------15b16-(15)-|
|-12------------14---14b15====(14)---(14)r------------|
|-----------------------------------------------------|
|-----------------------------------------------------|
|-----------------------------------------------------|
|-----------------------------------------------------|


  E                      D  E            B               D
   S     S S S   E        S  S +S  S E    S         S     E
|------------------------------------------------------------|
|------------------------------------------------------------|
|------------------------------------------------------------|
|---------------------------------------------------------7--|
|--7-----7-7-7---7--------5--7-(7)-7-7----9---------------5--|
|-----------------------------------------7------------------|
|
|  S     S S S   S    S   S  S  S  S S S  S         S     E
|------------------------------------------------------------|
|--9-----9-9-9---9--------7--9-----9-9----4---------------7--|
|--9-----9-9-9---9--------7--9-----9-9----4---------------7--|
|--9-----9-9-9---9--------7--9-----9-9----4---------------7--|
|--7-----7-7-7---7--------5--7-----7-7----2---------------5--|
|------------------------------------------------------------|
|
|                                         |-----3------|
|  Q            +S   +S   S  S  Q         S     +S     S  e
|------------------------------------------------------------|
|-14b15========(14)r(14)p12h14-12--------14b15r(14)p==12-14--|
|------------------------------------------------------------|
|------------------------------------------------------------|
|------------------------------------------------------------|
|------------------------------------------------------------|


  E                         D E             B    D
   S      S S  S       E    S S  +S   S E    S S E
|--------------------------------------------------|
|--------------------------------------------------|
|--------------------------------------------------|
|------------------------------------------------7-|
|--7------7-7--7-------7----5-7--(7)--7-7----9---5-|
|--------------------------------------------7-----|
|
|  S      S S  S       S  S S S   S   S S S  S S E
|--------------------------------------------------|
|--9------9-9--9-------9----7-9-------9-9----4---7-|
|--9------9-9--9-------9----7-9-------9-9----4---7-|
|--9------9-9--9-------9----7-9-------9-9----4---7-|
|--7------7-7--7-------7----5-7-------7-7----2---5-|
|--------------------------------------------------|
|
|  S      E    S      +Q         +E     E    Q
|-15pb16r15---------------------------------19-----|
|-------------14b15==(14)-------(14)r--------------|
|--------------------------------------------------|
|--------------------------------------------------|
|--------------------------------------------------|
|--------------------------------------------------|


  E                   D    E            B     D
    S  S S S E          S  S  +S  S E    S  S  E
|------------------------------------------------|
|------------------------------------------------|
|------------------------------------------------|
|----------------------------------------------7-|
|---7--7-7-7-7----------5--7--(7)-7-7----9-----5-|
|----------------------------------------7-------|
|
|   S  S S S S  S       S  S   S  S S S  S  S  E
|------------------------------------------------|
|---9--9-9-9-9----------7--9------9-9----4-----7-|
|---9--9-9-9-9----------7--9------9-9----4-----7-|
|---9--9-9-9-9----------7--9------9-9----4-----7-|
|---7--7-7-7-7----------5--7------7-7----2-----5-|
|------------------------------------------------|
|
|  +Q        S  S      +E     +E    E    S  S  E
|-(19)---------19pb21r(19)---(19)-------17h19-17-|
|------------------------------------------------|
|------------------------------------------------|
|------------------------------------------------|
|------------------------------------------------|
|------------------------------------------------|


  E             D E           B     D    E             D  E           B    D
   S  S S S E   S S +S  S E    S  S  E    S  S S S E    S S +S  S E    S S E
|--------------------------------------|-------------------------------------|
|--------------------------------------|-------------------------------------|
|--------------------------------------|-------------------------------------|
|------------------------------------7-|-----------------------------------7-|
|--7--7-7-7-7---5-7-(7)-7-7----9-----5-|--7--7-7-7-7----5-7-(7)-7-7----9---5-|
|------------------------------7-------|-------------------------------7-----|
|
|  S  S S S S S S S  S  S S S  S  S  E    S  S S S S S  S S  S  S S S  S S E
|--------------------------------------|-------------------------------------|
|--9--9-9-9-9---7-9-----9-9----4-----7-|--9--9-9-9-9----7-9-----9-9----4---7-|
|--9--9-9-9-9---7-9-----9-9----4-----7-|--9--9-9-9-9----7-9-----9-9----4---7-|
|--9--9-9-9-9---7-9-----9-9----4-----7-|--9--9-9-9-9----7-9-----9-9----4---7-|
|--7--7-7-7-7---5-7-----7-7----2-----5-|--7--7-7-7-7----5-7-----7-7----2---5-|
|--------------------------------------|-------------------------------------|
|
|  ~~~                                    ~~~
|  Q.           E    Q         S  S  E    Q.            E    E    E    E   E
|-16--------------------------19----16-|-16------------17---16--------14-----|
|--------------------------------17----|-------------------------------------|
|--------------------------------------|-------------------------------------|
|--------------------------------------|-------------------------------------|
|--------------------------------------|-------------------------------------|
|--------------------------------------|-------------------------------------|


  E            D E            B    D
   S S S S E   S S  +S  S E    S S  E
|-------------------------------------|
|-------------------------------------|
|-------------------------------------|
|-----------------------------------7-|
|--7-7-7-7-7---5-7--(7)-7-7----9----5-|
|------------------------------7------|
|
|  S S S S S S S S   S  S S S  S S  E
|-------------------------------------|
|--9-9-9-9-9---7-9------9-9----4----7-|
|--9-9-9-9-9---7-9------9-9----4----7-|
|--9-9-9-9-9---7-9------9-9----4----7-|
|--7-7-7-7-7---5-7------7-7----2----5-|
|-------------------------------------|
|
|  ~~~~~~~~~~~~~~~~~~~~~
|  H                +E    E    E    E
|-12---------------(12)---------------|
|-----------------------------12---14-|
|-------------------------------------|
|-------------------------------------|
|-------------------------------------|
|-------------------------------------|


  E                D E             B     D
   S     S S S E   S S  +S   S E    S  S  E
|-------------------------------------------*|
|-------------------------------------------*|
|-------------------------------------------*|
|-----------------------------------------7-*|
|--7-----7-7-7-7---5-7--(7)--7-7----9-----5-*|
|-----------------------------------7-------*|
|
|  S     S S S S S S S   S   S S S  S  S  E
|-------------------------------------------*|
|--9-----9-9-9-9---7-9-------9-9----4-----7-*|
|--9-----9-9-9-9---7-9-------9-9----4-----7-*|
|--9-----9-9-9-9---7-9-------9-9----4-----7-*|
|--7-----7-7-7-7---5-7-------7-7----2-----5-*|
|-------------------------------------------*|
|
|  ~~~~~~~~~~~~~~~~~~~~~~~~~~
|  H                    +Q          S  S  E
|-------------------------------------------*|
|-14b15================(14)r-------14p12h14-*|
|-------------------------------------------*|
|-------------------------------------------*|
|-------------------------------------------*|
|-------------------------------------------*|


Duration Legend
---------------
W - whole; H - half; Q - quarter; E - 8th; S - 16th; T - 32nd; X - 64th; a - acciaccatura
+ - note tied to previous; . - note dotted; .. - note double dotted
Uncapitalized letters represent notes that are staccato (1/2 duration)
Irregular groupings are notated above the duration line
Duration letters will always appear directly above the note/fret number it represents the
duration for.  Duration letters with no fret number below them represent rests.  Multi-
bar rests are notated in the form Wxn, where n is the number of bars to rest for.  Low
melody durations appear below the staff

Tablature Legend
----------------
 h   - hammer-on
 p   - pull-off
 b   - bend
 pb  - pre-bend
 r   - bend release (if no number after the r, then release immediately)
 /\  - slide into or out of (from/to "nowhere")
 s   - legato slide
 S   - shift slide
  - natural harmonic
[n]  - artificial harmonic
n(n) - tapped harmonic
 ~   - vibrato
 tr  - trill
 T   - tap
 TP  - trem. picking
 PM  - palm muting
\n/  - tremolo bar dip; n = amount to dip
 \n  - tremolo bar down
 n/  - tremolo bar up
/n\  - tremolo bar inverted dip
 =   - hold bend; also acts as connecting device for hammers/pulls
 <>  - volume swell (louder/softer)
 x   - on rhythm slash represents muted slash
 o   - on rhythm slash represents single note slash

Misc Legend
-----------
 |  - bar
||  - double bar
||o - repeat start
o|| - repeat end
*|  - double bar (ending)
 :  - bar (freetime)
 $  - Segno
 &  - Coda
Tempo markers -  = BPM(8/16=s8/s16), where s8 = swing 8ths, s16 = swing 16ths