Guitar Tabs - Jimi Hendrix - Manic Depression Tab

Time -1- -2- -3- -1- -2- -3-

eb|--------------------|--------------------|
3 Bb|--------------------|--------------------|
_ Gb|--------------------|--------------------|
Db|--------------------|--------------------|
4 Ab|--5-----6-----7-----|--------------------|
Eb|--------------------|--------------------|

 

-1- -2- -3- + -1- -2- -3- -1- -2- -3-

eb|--------------------|--------------------|--------------------|
Bb|--------------------|--------------------|--------------------|
Gb|--------------------|--------------------|--------------------|
Db|--5-----6-----7---7-|--------7--5--7--5--|--------7--5--7--5--|
Ab|--------------------|--0-----------------|--0-----------------|
Eb|--------------------|--------------------|--------------------|

-1- -2- -3- -1- -2- -3- -1- -2- -3-

eb|--------------------|--------------------|--------------------|
Bb|--------------------|--------------------|--------------------|
Gb|--------------------|--------------------|--------------------|
Db|--------7--5--7--5--|--------7--5--7--5--|--------------------|
Ab|--0-----------------|--0-----------------|--0-----4-----7-----|
Eb|--------------------|--------------------|--------------------|

Man---ic De---

 

-1- -2- -3- -1- -2- -3- -1- -2- -3-

eb|--------------------|--------------------|--------------------|
Bb|--------------------|--------------------|--------------------|
Gb|--------------------|--------------------|--------------------|
Db|--------------------|--------------------|--------7--5--7--5--|
Ab|--------2-----5--3--|--5-----6-----7-----|--0-----------------|
Eb|--3-----------------|--------------------|--------------------|

pre---ssion is tou---ching my soul....

 

-1- -2- -3- -1- -2- -3- -1- -2- -3-

eb|--------------------|--------------------|--------------------|
Bb|--------------------|--------------------|--------------------|
Gb|--------------------|--------------------|--------------------|
Db|--------7--5--7--5--|--------7--5--7--5--|--------7--5--7--5--|
Ab|--0-----------------|--0-----------------|--0-----------------|
Eb|--------------------|--------------------|--------------------|

-1- -2- -3- -1- -2- -3- -1- -2- -3-

eb|--------------------|--------------------|--------------------|
Bb|--------------------|--------------------|--------------------|
Gb|--------------------|--------------------|--------------------|
Db|--------------------|--------------------|--------------------|
Ab|--0-----4-----7-----|--------2-----5--3--|--5-----6-----7-----|
Eb|--------------------|--3-----------------|--------------------|

I know what I want but I... I just don't

-1- -2- -3- -1- -2- -3- -1- -2- -3-

eb|--------------------|--------------------|--------------------|
Bb|--------------------|--------------------|--------------------|
Gb|--------------------|--------------------|--------------------|
Db|--------7--5--7--5--|--------7--5--7--5--|--------7--5--7--5--|
Ab|--0-----------------|--0-----------------|--0-----------------|
Eb|--------------------|--------------------|--------------------|

know how to go about gettin' it...

 

-1- -2- -3- -1- -2- -3- -1- -2- -3-

eb|--------------------|--------------------|--------------------|
Bb|--------------------|--------------------|--------------------|
Gb|--------------------|--------------------|--------------------|
Db|--------7--5--7--5--|--------------------|--------------------|
Ab|--0-----------------|--------4-----2-----|--------2-----5-----|
Eb|--------------------|--0-----------------|--3-----------------|

Fee---ling Sweet Fee----ling

-1- -2- -3- -1- -2- -3- -1- -2- -3-

eb|--------------------|--------------------|--------------------|
Bb|--------------------|--------------------|--------------------|
Gb|--------------------|--------------------|--------------------|
Db|--------------------|--------------------|--------------------|
Ab|--5--------3--5--3--|--5--------1--3--1--|--3--1--3--1--------|
Eb|--------------------|--------------------|--------------3--1--|

Drops from my fingers.... fingers...

-1- -2- -3- -1- -2- -3- -1- -2- -3-

eb|--------------------|--------------------|--------------------|
Bb|--------------------|--------------------|--------------------|
Gb|--------------------|--------------------|--------------------|
Db|--------------------|--------------------|--------------------|
Ab|--------------------|--0-----4-----7-----|--------2-----5--3--|
Eb|--3--1--3--1--3-----|--------------------|--3-----------------|

Man---ic De-------pression has a

-1- -2- -3- -1- -2- -3- -1- -2- -3-

eb|--------------------|--------------------|--------------------|
Bb|--------------------|--------------------|--------------------|
Gb|--------------------|--------------------|--------------------|
Db|--------------------|--------------------|--5-----6-----7-----|
Ab|--5-----6-----7-----|--------------------|--------------------|
Eb|--------------------|--------------------|--------------------|

cap---tured my soul

-1- -2- -3- -1- -2- -3- -1- -2- -3-

eb|--------------------|--------------------|--------------------|
Bb|--------------------|--------------------|--------------------|
Gb|--------------------|--------------------|--------------------|
Db|--------7--5--7--5--|--------7--5--7--5--|--------7--5--7--5--|
Ab|--0-----------------|--0-----------------|--0-----------------|
Eb|--------------------|--------------------|--------------------|

Yeah....

-1- -2- -3- -1- -2- -3- -1- -2- -3-

eb|--------------------|--------------------|--------------------|
Bb|--------------------|--------------------|--------------------|
Gb|--------------------|--------------------|--------------------|
Db|--------7--5--7--5--|--------------------|--------------------|
Ab|--0-----------------|--0-----4-----7-----|--------2-----5--3--|
Eb|--------------------|--------------------|--3-----------------|

Wo----man's so willing... her

-1- + -2- + -3- + -1- + -2- + -3-

eb|--------------------|----------------------------|
Bb|--------------------|------------5~~~-------5~~~-|
Gb|--------------------|-------7b(9)------7b(9)-----|
Db|--------------------|----------------------------|
Ab|--5-----6-----7-----|--0-------------------------|
Eb|--------------------|----------------------------|

sweet cause in vain....

-1- + -2- + -3- -1- + -2- + -3-

eb|----------------------------|----------------------------|
Bb|------------5~~~-------5~~~-|------------5~~~-------5~~~-|
Gb|-------7b(9)------7b(9)-----|-------7b(9)------7b(9)-----|
Db|----------------------------|----------------------------|
Ab|--0-------------------------|--0-------------------------|
Eb|----------------------------|----------------------------|

-1- + -2- + -3- -1- -2- -3- -1- -2- -3-

eb|----------------------------|--------------------|--------------------|
Bb|------------5~~~-------5~~~-|--------------------|--------------------|
Gb|-------7b(9)------7b(9)-----|--------------------|--------------------|
Db|----------------------------|--------------------|--------------------|
Ab|----------------------------|--0-----4-----7-----|--------2-----5--3--|
Eb|--0-------------------------|--------------------|--3-----------------|

You make love you brave girls it's a

eb|--------------------|----------------------------|
Bb|--------------------|------------5~~~-------5~~~-|
Gb|--------------------|-------7b(9)------7b(9)-----|
Db|--------------------|----------------------------|
Ab|--5-----4-----7-----|--0-------------------------|
Eb|--------------------|----------------------------|
all the same....

-1- + -2- + -3- -1- + -2- + -3-

eb|----------------------------|----------------------------|
Bb|------------5~~~-------5~~~-|------------5~~~-------5~~~-|
Gb|-------7b(9)------7b(9)-----|-------7b(9)------7b(9)-----|
Db|----------------------------|----------------------------|
Ab|--0-------------------------|--0-------------------------|
Eb|----------------------------|----------------------------|

when it's..... when it's over.........

-1- -2- -3- -1- -2- -3- -1- -2- -3-

eb|--------------------|--------------------|--------------------|
Bb|--------------------|--------------------|--------------------|
Gb|--------------------|--------------------|--------------------|
Db|--------------------|--------------------|--------------------|
Ab|--------------------|--------------2-----|--------2-----5-----|
Eb|--5--------(5)\0----|--0-----4-----------|--3-----------------|

Mu---sic Sweet Mu----sic

 

-1- -2- -3- -1- -2- -3- -1- -2- -3-

eb|--------------------|--------------------|--------------------|
Bb|--------------------|--------------------|--------------------|
Gb|--------------------|--------------------|--------------------|
Db|--------------------|--------------------|--------------------|
Ab|--5--------3--5--3--|--5--------1--3--1--|--3--1--3--1--------|
Eb|--------------------|--------------------|--------------3--1--|

I wish I could caress... caress...

-1- -2- -3- -1- -2- -3- -1- -2- -3-

eb|--------------------|--------------------|--------------------|
Bb|--------------------|--------------------|--------------------|
Gb|--------------------|--------------------|--------------------|
Db|--------------------|--------------------|--------------------|
Ab|--------------------|--0-----4-----7-----|--------2-----5--3--|
Eb|--3--1--3--1--3-----|--------------------|--3-----------------|

caress... Man---ic De-------pression is a

-1- -2- -3- -1- -2- -3- -1- -2- -3-

eb|--------------------|--------------------|--------------------|
Bb|--------------------|--------------------|--------------------|
Gb|--------------------|--------------------|--------------------|
Db|--------------------|--------------------|--5-----6-----7-----|
Ab|--5-----6-----7-----|--------------------|--------------------|
Eb|--------------------|--------------------|--------------------|

frus--tra---ting mess!

-1- -2- -3- -1- -2- -3- -1- -2- -3-

eb|--------------------|--------------------|--------------------|
Bb|--------------------|--------------------|--------------------|
Gb|--------------------|--------------------|--------------------|
Db|--X-----X-----X-----|--------------------|--5-----6-----7-----|
Ab|--X-----X-----X-----|--5-----6-----7-----|--------------------|
Eb|--X-----X-----X-----|--------------------|--------------------|

whwhhhOWWWWWWWW!!!

-1- + -2- + -3- -1- -2- -3-

eb|----------------------------|--------------------|
Bb|-------5~~~~~~~~~~~~~~~~~~~~|~~~~~~~~~~~~~~------|
Gb|--7b(9)---------------------|--------------------|
Db|----------------------------|--------------------|
Ab|----------------------------|--------------------|
Eb|----------------------------|--------------------|

-1- + -2- + -3- -1- -2- -3-

eb|------------------------------|--------------------|
Bb|---------8~~~~~~~~~~~~~~~~~~~~|~~~~~~~~~~~~~~------|
Gb|--10b(12)---------------------|--------------------|
Db|------------------------------|--------------------|
Ab|------------------------------|--------------------|
Eb|------------------------------|--------------------|

-1- + -2- + -3- -1- -2- -3-

eb|---------7~~~~~~~~~~~~~~~~~~~~|~~~~~~~~~~~~~~------|
Bb|--10b(12)---------------------|--------------------|
Gb|------------------------------|--------------------|
Db|------------------------------|--------------------|
Ab|------------------------------|--------------------|
Eb|------------------------------|--------------------|

-1- + -2- + -3-

eb|---------10~~~~~~~~~~~~~~~~~~~|
Bb|--13b(15)---------------------|
Gb|------------------------------|
Db|------------------------------|
Ab|------------------------------|
Eb|------------------------------|

-|-----------------------------------------------------------|-
\ / \ /
v v
*** I N S E R T 2 8 B A R S O F S O L O H E R E ***
^ ^
/ \ / \
-|-----------------------------------------------------------|-

-1- -2- -3- -1- -2- -3- -1- -2- -3-

eb|--------------------|--------------------|--------------------|
Bb|--------------------|--------------------|--------------------|
Gb|--------------------|--------------------|--------------------|
Db|--------7--5--7--5--|--------------------|--------------------|
Ab|--0-----------------|--0-----4-----7-----|--------2-----5--3--|
Eb|--------------------|--------------------|--3-----------------|

Well I... Think I'm gonna tear myself off and a

-1- + -2- + -3- + -1- + -2- + -3-

eb|--------------------|----------------------------|
Bb|--------------------|------------5~~~-------5~~~-|
Gb|--------------------|-------7b(9)------7b(9)-----|
Db|--------------------|----------------------------|
Ab|--5-----6-----7-----|--0-------------------------|
Eb|--------------------|----------------------------|

go on down....

 

-1- + -2- + -3- -1- + -2- + -3- +

eb|----------------------------|----------------------------------|
Bb|------------5~~~-------5~~~-|------------10~~~-------10~~~-----|
Gb|-------7b(9)------7b(9)-----|------12b(14)-----12b(14)--12b(14)|
Db|----------------------------|----------------------------------|
Ab|--0-------------------------|--0-------------------------------|
Eb|----------------------------|----------------------------------|

all the way down....

-1- + -2- + -3- + -1- -2- -3- -1- -2- -3-

eb|----------------------------|--------------------|--------------------|
Bb|--10~~~------10~~~-----8--9-|--------------------|--------------------|
Gb|-------7b(9)----------------|--------------------|--------------------|
Db|----------------------------|--------------------|--------------------|
Ab|----------------------------|--0-----4-----7-----|--------2-----5--3--|
Eb|----------------------------|--------------------|--3-----------------|

Really aint no use in me

eb|--------------------|----------------------------|
Bb|--------------------|------------5~~~-------5~~~~|
Gb|--------------------|-------7b(9)------7b(9)-----|
Db|--------------------|----------------------------|
Ab|--5-----4-----7-----|--0-------------------------|
Eb|--------------------|----------------------------|

hang--ing a--------round....

-1- + -2- + -3- -1- + -2- + -3-

eb|----------------------------|----------------------------|
Bb|~~~~~~------5~~~-------5~~~-|------------5~~~-------5~~~-|
Gb|-------7b(9)------7b(9)-----|-------7b(9)------7b(9)-----|
Db|----------------------------|----------------------------|
Ab|----------------------------|--0-------------------------|
Eb|----------------------------|----------------------------|

you know what kinda scene...

-1- -2- -3- -1- -2- -3- -1- -2- -3-

eb|--------------------|--------------------|--------------------|
Bb|--------------------|--------------------|--------------------|
Gb|--------------------|--------------------|--------------------|
Db|--------------------|--------------------|--------------------|
Ab|--------------------|--------------2-----|--------2-----5-----|
Eb|--5--------(5)\0----|--0-----4-----------|--3-----------------|

Mu---sic Sweet Mu----sic

 

-1- -2- -3- -1- -2- -3- -1- -2- -3-

eb|--------------------|--------------------|--------------------|
Bb|--------------------|--------------------|--------------------|
Gb|--------------------|--------------------|--------------------|
Db|--------------------|--------------------|--------------------|
Ab|--5--------3--5--3--|--5--------1--3--1--|--3--1--3--1--------|
Eb|--------------------|--------------------|--------------3--1--|

I wish I could caress... and kiss....

-1- -2- -3- -1- -2- -3- -1- -2- -3-

eb|--------------------|--------------------|--------------------|
Bb|--------------------|--------------------|--------------------|
Gb|--------------------|--------------------|--------------------|
Db|--------------------|--------------------|--------------------|
Ab|--------------------|--0-----4-----7-----|--------2-----5--3--|
Eb|--3--1--3--1--3-----|--------------------|--3-----------------|

kiss.... Man---ic De-------pression is a

-1- -2- -3- -1- -2- -3-

eb|--------------------|--------------------|
Bb|--------------------|--------------------|
Gb|--------------------|--------------------|
Db|--------------------|--------------------|
Ab|--5-----6-----7-----|--------------------|
Eb|--------------------|--------------------|

frus--tra---ting mess!

-1- -2- -3- -1- -2- -3-

eb|--------------------|--------------------|
Bb|--------------------|--------------------|
Gb|--------------------|--------------------|
Db|--5-----6-----7-----|--------------------|
Ab|--------------------|--------------------|
Eb|--------------------|--------------------|

whwhhhOWWWWWWWW!!!

-1- -2- -3- -1- -2- -3-

eb|--------------------|--------------------|
Bb|--------------------|--------------------|
Gb|--------------------|--------------------|
Db|--------------------|--------------------|
Ab|--5-----6-----7-----|--------------------|
Eb|--------------------|--------------------|

Yeah....

-1- -2- -3- -1- -2- -3-

eb|--------------------|--------------------|
Bb|--------------------|--------------------|
Gb|--------------------|--------------------|
Db|--5-----6-----7-----|--------------------|
Ab|--------------------|--------------------|
Eb|--------------------|--------------------|

Owww!.....

-1- -2- -3- -1- -2- -3-

eb|--------------------|--------------------|
Bb|--------------------|--------------------|
Gb|--------------------|--------------------|
Db|--------------------|--5-----6-----7-----|
Ab|--5-----6-----7-----|--------------------|
Eb|--------------------|--------------------|

-1- -2- -3- -1- -2- -3-

eb|--------------------|--------------------|
Bb|--------------------|--------------------|
Gb|--------------------|--------------------|
Db|--------------------|--5-----6-----7-----|
Ab|--5-----6-----7-----|--------------------|
Eb|--------------------|--------------------|

-1- -2- -3- -1- + -2- + -3-

eb|--------------------|----------------------------|
Bb|--------------------|-------5~~~~~~~~~~~~~~~~~~\0|
Gb|--------------------|--7b(9)---------------------|
Db|--------------------|----------------------------|
Ab|--5-----6-----7-----|----------------------------|
Eb|--------------------|----------------------------|

-1- -2- -3- -1- + -2- + -3-

eb|--------------------|----------------------------|
Bb|--------------------|--------10~~~~~~~~~~~~~~~~\0|
Gb|--------------------|-12b(14)--------------------|
Db|--5-----6-----7-----|----------------------------|
Ab|--------------------|----------------------------|
Eb|--------------------|----------------------------|

-1- -2- -3- -1- + -2- + -3-

eb|--------------------|----------------------------|
Bb|--------------------|-------5~~~~~~~~~~~~~~~~~~\0|
Gb|--------------------|--7b(9)---------------------|
Db|--------------------|----------------------------|
Ab|--5-----6-----7-----|----------------------------|
Eb|--------------------|----------------------------|

-1- -2- -3- -1- + -2- + -3-

eb|--------------------|----------------------------|
Bb|--------------------|--------10~~~~~~~~~~~~~~~~\0|
Gb|--------------------|-12b(14)--------------------|
Db|--5-----6-----7-----|----------------------------|
Ab|--------------------|----------------------------|
Eb|--------------------|----------------------------|

-1- -2- -3- -1- -2- -3-

eb|--------------------|--------------------|
Bb|--------------------|--------------------|
Gb|--------------------|--------------------|
Db|--------------------|--5-----6-----7-----|
Ab|--5-----6-----7-----|--------------------|
Eb|--------------------|--------------------|

Mus---ic sweet Mus---ic sweet

-1- -2- -3- -1- -2- -3-

eb|--------------------|--------------------|
Bb|--------------------|--------------------|
Gb|--------------------|--------------------|
Db|--------------------|--5-----6-----7-----|
Ab|--5-----6-----7-----|--------------------|
Eb|--------------------|--------------------|

Mus---ic sweet Mus---ic....

-1- -2- -3- -1- + -2- + -3-

eb|--------------------|----------------------------|
Bb|--------------------|-------5~~~~~~~~~~~~~~~~~~\0|
Gb|--------------------|--7b(9)---------------------|
Db|--------------------|----------------------------|
Ab|--5-----6-----7-----|----------------------------|
Eb|--------------------|----------------------------|

-1- -2- -3- -1- + -2- + -3-

eb|--------------------|----------------------------|
Bb|--------------------|-------5~~~~~~~~~~~~~~~~~~\0|
Gb|--------------------|--7b(9)---------------------|
Db|--------------------|----------------------------|
Ab|--5-----6-----7-----|----------------------------|
Eb|--------------------|----------------------------|

-1- -2- -3- -1- + -2- + -3-

eb|--------------------|----------------------------|
Bb|--------------------|-------5~~~~~~~~~~~~~~~~~~\0|
Gb|--------------------|--7b(9)---------------------|
Db|--------------------|----------------------------|
Ab|--5-----6-----7-----|----------------------------|
Eb|--------------------|----------------------------|

-1- -2- -3- -1- + -2- + -3-

eb|--------------------|----------------------------|
Bb|--------------------|--------10~~~~~~~~~/12~~~~\0|
Gb|--------------------|-12b(14)--------------------|
Db|--5-----6-----7-----|----------------------------|
Ab|--------------------|----------------------------|
Eb|--------------------|----------------------------|

-1- -2- -3- -1- -2- -3-

eb|--------------------|--------------------|
Bb|--------------------|--------------------|
Gb|--------------------|--------------------|
Db|--------------------|--5-----6-----7-----|
Ab|--5-----6-----7-----|--------------------|
Eb|--------------------|--------------------|

-1- -2- -3- -1- -2- -3-

eb|--------------------|--------------------|
Bb|--------------------|--------------------|
Gb|--------------------|--------------------|
Db|--------------------|--5-----6-----7-----|
Ab|--5-----6-----7-----|--------------------|
Eb|--------------------|--------------------|

Mus---ic sweet Mus---ic....

-1- -2- -3- -1- -2- -3-

eb|--------------------|--------------------|
Bb|--------------------|--------------------|
Gb|--------------------|--------------------|
Db|--------------------|--5-----6-----7-----|
Ab|--5-----6-----7-----|--------------------|
Eb|--------------------|--------------------|

-1- + -2- + -3- -1- -2- -3-

eb|----------------------------|--------------------|
Bb|-------5~~~~~~~~~~~~~~~~~~~~|~~~~~~~~~~~~~~------|
Gb|--7b(9)---------------------|--------------------|
Db|----------------------------|--------------------|
Ab|----------------------------|--------------------|
Eb|----------------------------|--------------------|

-1- + -2- + -3- -1- -2- -3-

eb|------------------------------|--------------------|
Bb|---------8~~~~~~~~~~~~~~~~~~~~|~~~~~~~~~~~~~~------|
Gb|--10b(12)---------------------|--------------------|
Db|------------------------------|--------------------|
Ab|------------------------------|--------------------|
Eb|------------------------------|--------------------|

-1- + -2- + -3- -1- -2- -3-

eb|---------7~~~~~~~~~~~~~~~~~~~~|~~~~~~~~~~~~~~------|
Bb|--10b(12)---------------------|--------------------|
Gb|------------------------------|--------------------|
Db|------------------------------|--------------------|
Ab|------------------------------|--------------------|
Eb|------------------------------|--------------------|

-1- + -2- + -3- + -1- + -2- + -3-

eb|---------10~~~~~~~~~~~~~~~~~~10~|~10~~~~10~10~~~10~10~~~|
Bb|--13b(15)-----------------------|-----------------------|
Gb|--------------------------------|-----------------------|
Db|--------------------------------|-----------------------|
Ab|--------------------------------|-----------------------|
Eb|--------------------------------|-----------------------|

--> OUTRO <--