Living colour - Ignorance Is_Bliss Tab

Intro:
e---------------------------------
B-----6-7-------10-9--------------
G---5---------9-------------------
D-5---------9-----------------8---
A---------------------6-6-6-------
E---------------------------------

Verses :
1 & 2 & 3 & 4 & 1 & 2 & 3 & 4 & |
e---------------------------------|---------------------------------|
B---------------------------------|---------------------------------|
G---------------------------------|-----------------2-------3---2---|
D-----------------1-------3-1-----|---------------------1-----------|
A-3-3-3-3-3-3-3-3-----3-------3-1-|-3-3-3-3-3-3-3-3-----------------|
E---------------------------------|---------------------------------|

e---------------------------------|---------------------------------|
B---------------------------------|---------------------------------|
G---------------------------------|-----------------3---------------|
D-----------------1-------3-1-----|-----------------3-------3-------|
A-3-3-3-3-3-3-3-3-----3-------3-1-|-3-3-3-3-3-3-3-3-1-------3-------|
E---------------------------------|-------------------------1-------|

Chorus : 2x
e---------------------------------|---------------------------------|
B-8-------6-------6---------------|-4---------------3---------------|
G-8-------7-------5---------------|-3---------------3---------------|
D-8-------8-------7---------------|-5---------------3---------------|
A---------------------------------|---------------------------------|
E---------------------------------|---------------------------------|

e---------------------------------|---------------------------------|
B-----9-8---------9-8-----8-------|---------------------------------|
G-0-6---------0-6-----------------|---------------------------------|
D---------------------------------|-----5---5-----------6---5-------|
A---------------------------------|---4-------4---3-----6---5-------|
E---------------------------------|-3-----------3-------4---3-------|

wb
e---------------------------------|---------------------------------|
B-----9-8---------9-8-----8-------|---------------------------------|
G-0-6---------0-6-----------------|---------------------------------|
D---------------------------------|-----5---5-----------------------|
A---------------------------------|---4-------4---3/4\3/4-----------|
E---------------------------------|-3-----------3-------------------|

Bridge :
e-||-------------------||
B-||-------------------||
G-||o-----------------o||
D-||o-----5---4---3---o||
A-||-------------------||
E-||--3-3---4---5---6--||

lh: 1 1 4 2 3 4 1 4

Last part:
e---------------------------------|
B---------------------------------|
G---------------------------------|
D---------------------------------|
A-3-3-3-3-3-3-3-3-1-1-1-1-4-3-----|
E-------------------------2-1-----|

air max 90 essential size