Living Colour - Love Rears Its Ugly Head

INTRO:
=======

RIFF A: (Play this twice)
B7 A7 E7
e|----------------|---------------|---------------|---------------||
B|----------------|---------------|---------------|---------------||
G|--8-----------8-|-6-------------|-7-7---7-------|---------------||
D|--7-----------7-|-5-------------|-6-6---6-------|---------------||
A|----------------|---------------|---------------|---------------||
E|----------------|---------------|---------------|---------------||
1 2 3 4 1 2 3 4 1 2 3 4 1 2 3 4

 

VERSE 1: (with RIFF A 4 times)
=======
I always thought our relationship was cool
You played the role of havin' sense, I always played the fool <BREAK 1>
But now something's different, I don't know the reason why
Whenever we seperate I almost want to cry [Last measure first count: drum riff]

<BREAK 1:>

bass guitar
S S
e-------------------------|-------------------------------------
B-------------------------|-------------------------------------
G-----2-------------------|------2------------8-6-X-X-X-7-7-X-7-
D--/4---2-0---------------|---/4---2----------7-5-X-X-X-6-6-X-6-
A-----------2-0-2---2-0---|----------5-2---2--------------------
E-------------------------|--------------5----------------------

 

CHORUS:
=======

RIFF B: (Play twice)
[Drum riff] D5 C#m
e-----------------|---------------|---------------|------------------|
B-----------------|---------------|---------------|-5----------------|
G-----------------|-7-------------|-7-------------|-6----------------|
D-------4---5---7-|-7-------------|-7-------------|-6----------------|
A-----------------|-5-------------|-5-------------|-4----------------|
E-----------------|---------------|---------------|------------------|
1 2 3 4 1 2 3 4 1 2 3 4 1 2 3 4
Oh, no
Love rears up its

C#m B7 A7 E7
e-----------------|---------------|---------------|------------------||
B---5-------------|---------------|---------------|------------------||
G---6-------------|-8-----------8-|-6-------------|-7---7---7--------||
D---6-------------|-7-----------7-|-5-------------|-6---6---6--------||
A---4-------------|---------------|---------------|------------------||
E-----------------|---------------|---------------|------------------||
1 2 3 4 1 2 3 4 1 2 3 4 1 2 3 4
please not that again
ugly head

 

SOLO 1: (with RIFF A twice)
=======

B B B V B
e---------7---------------------------------------------------
B--10(12)---10-9-7--------7-----------------------------------
G------------------10(11)---7-9(11)-7~-----4-6(8)-(8)-(8)-(8)-
D----------------------------------------6--------------------
A-------------------------------------------------------------
E-------------------------------------------------------------
R S S B S B B B B
e-------------------------------------------------------------
B-------------------------------------------------------------
G-(8)6-4\-----7-9(11)------7-9(11)-9-7---9(11)-9(11)-9(11)-9-7
D----------/9-----------/9------------------------------------
A-------------------------------------------------------------
E-------------------------------------------------------------

Unisono with Bass :
S
e-------------------
B-------------------
G------4------8-----
D-4-6-----6-4/7-----
A-------------------
E-------------------

VERSE 2: (with RIFF A 4 times)
=======
And when I come home late you don't complain or call
So as a consequence I don't go out at all <BREAK 2>
My friends are frightened, they don't know what's going on
They think they put a spell on me, and now my mind is gone

<BREAK 2:>

bass
S
G-----2---------------------------------------------------
D--/4---2-0-----------------------------------------------
A-----------2-0-2-1-0-------------------------------------
E----------------------0--5-4-3--0-0--0-4-5-6-7-----------

guitar
S NH
e-----------------------<12>---
B-----------------------<12>---
G----2------------------<12>---
D-/4---2-----------------------
A--------5-2---2-1-0-----------
E------------5-----------------

CHORUS: (with RIFF B twice)
=======

SOLO 2: (Play RIFF A twice)
=======

B P B P P B R P H
e-------------------------------------------------------------------
B----------------7-------------------7-10^7-9^7---------------------
G------------7-9---9(11)9^7----9(11)------------9-9(11)9^7---7------
D--------7-9----------------9------------------------------9---9-7^9
A----7-9------------------------------------------------------------
E--9----------------------------------------------------------------
B
e-----------------------------------------------7---7----
B------------------------------7-7--10-10(12)-----7---7--
G-7------------------7-7---9-9---------------------------
D---9-7---7-9----9-9-------------------------------------
A-------9------------------------------------------------
E--------------------------------------------------------
B H P H P B R B S
e-10(12)-10-9^10^9-8-7----7-----------------------------------
B----------------------10----10-9^10^9-------9----------------
G--------------------------------------11-13---10(11)10(11)\--
D-------------------------------------------------------------
A-------------------------------------------------------------
E-------------------------------------------------------------

BRIDGE:
======
G/D F#/C# E/B B A
Oh love is not so bad they say
D C B A E7
but you never know where love is gonna go

 

SOLO 3:
=======
B B
e----------------------------------------------------------------
B-(12)-(12)-(12)-(12)-(12)-(12)-(12)-10-10(12)-10-10-10(12)-10-10
G----------------------------------------------------------------
D----------------------------------------------------------------
A----------------------------------------------------------------
E----------------------------------------------------------------
B B R V B H
e-----------------------------------------------------------------
B-10(12)-10-10-10(12)-10-(12)10-7----------------7------------12--
G---------------------------------7~--9(11)--7-9---7----10^13-----
D-----------------------------------------------------------------
A-----------------------------------------------------------------
E-----------------------------------------------------------------
S
e-----------------------------
B-11-10-12-----12-------------
G----------/13----13-11-------
D-----------------------------
A-----------------------------
E-----------------------------

B A E7
(does anybody really know?) <Check this out>

VERSE 3:
=======
I'm standing at the altar as they play the wedding march
I'm in my black tuxedo with my collar full of starch <BREAK 3>
She looks as lovely as she's ever gonna get
I wake up from this nightmare in a pool of sweat

 

<BREAK 3:>

bass
S
G-----2--------------------------------------------
D--/4---2-0----------------------------------------
A-----------2-0-2----2--0--------------------------
E------------------0------4-3--0-0--0-4---4-5-6-7--

guitar
S NH
e------------------------------<12>---
B------------------------------<12>---
G----2----------------6-5-4----<12>---
D-/4---2--------------7-6-5-----------
A--------5-2-0-6-5-4------------------
E-------------------------------------

CHORUS: (with RIFF B twice)
=======

ENDING: (with RIFF B twice)
======
D C#m B B/A E
Oh no no no no, not that again, yeah yeah yeah yeah yeah
D C#m
I'm not going, well I'm not going, when
B B/A E
Love rears up its ugly head
D C#m
No, not me no na, No no not me, when
B
Love rears up its
B/A E
Love rears up its ugly ugly ugly ugly head
D
What you gonna do
E
what you gonna do when it comes and gets you?

OUTRO: 2x B7 A7 E7 as outro

jordan shoes for sale outlet cheap