Living Colour New Jack Theme

e------------2-------------2------------------------------------------------
b-----2------3------2------3--------------------------------------17--------
g-----2------2------2------2-------16--15---14--16-----16--15-14------------
d-----2------0------2------0------------------------------------------------
a-----0-------------0-------------------------------------------------------

g-------9------9-------9---------9------------------------------------------
d-------9------8-------7---------8----play this twice-----------------------
a-------7------7-------7---------7------------------------------------------
e----00----00------00-------00------0000------------------------------------

a-------3--4--------this is the main riff-----------------------------------
e----3-------3--3-----------------------------------------------------------

these three riffs are repeated twice before the chorus

g----2--------------------2-------------2-----------------------------------
d----2--------------------2-------------2---5-------------------------------
a----0--------------------0-------------0---5-------------------------------
e------3333--3-1-3-1-3-1----3-1-3-1-3-1-----3-------------------------------