Living Colour Postman

Riff 1 (play 3x)

e--------------------------------I
b--------------------------------I
g--------------------------------I
D--------------------------------I
A-----4------2-3-------3---------I
E--1-----1--------1----1---------I

(4th time play..)
e--------------------------------I
b--------------------------------I
g--------------------------------I
D-----------------------(4)------I
A-----4------2-3---------4-------I
E--1-----1--------1------2-------I

e--------------------------I
b--------------------------I
g-----------6-4--------3-2-I
D-----------6-4--------3-2-I
A----4--2-3-4-2--4-3-2-1-0-I
E--1--1---------1-1--------I

 

e--------------------------I
b--------------------------I
g--------------------------I
D-----------------------4-4I
A---4--2-3--3----4--2-3-4-4I
E-1--1----1-1--1--1-----2-2I

(chorus)repeat once

.....they crucify me again and again
e--------------------------I
b--------------------------I
g--------------------------I
D-4/6/9\6--666666-54-------I
A-4/6/9\6--666666-54-------I
E-2/4/7\4--444444-32-------I
..then play


e------------------------------I
b------------------------------I
g------------------------------I
d-4456--666666--54-------------I
a-4456--666666--54-------------I
e-2234--444444--32-------------I

e--------------------------I
b--------------------------I
g--------------------------I
D-4/6/9\6--666666-7--(7)---I
A-4/6/9\6--666666-7--(7)---I
E-2/4/7\4--444444-5--(5)---I
...then back to verse riff, (verse starts on end of intro riff)

e--------------------------I
b--------------------------I
g-----------6-4--------3-2-I
D-----------6-4--------3-2-I
A----4--2-3-4-2--4-3-2-1-0-I
E--1--1---------1-1--------I