Holdsworth

Free Famous Guitar Solos Tabs

The best guitar solos that made history.
Click to Get Free Tab Here

Allan Holdsworth - Road Games Tab

Hold 4 bars
----------10-15p14-9--------------8--13---16----------------
-------10------------9----------8---------14---------5------
-10h11-----------------10-9-8h9-----------10---------4------
------------------------------------------10---------2------
-----------------------------------------------------0------
------------------------------------------------------------

Allan Holdsworth - Looking Glass Tab

============================
Head1
============================

12 10 14 12 11 9 9 9 9 9 9
8 7 x 9 7 6 7 8 7 6 x
x x 14 x x x x x x x 11
12 10 x 11 9 8 9 10 9 8 x
x x 14 x x x x x x x x
x x x x x x x x x x 11

14 12 9 9 9 9 9 9 9 7 12
x x x x x x x x x x x
16 x 13 13 14 15 14 13 12 11 9 14
x x x x x x x x x x x
x x x x x x x x x x 14
16 14 13 14 15 14 13 12 11 9 x

============================
Ending1Head1
============================

Allan Holdsworth - City Nights Tab

------------------------------------------------------------
------------------------------------------------------------
---5/7--------------------7---------------------------------
-----------7-----5------------7-----5-------8---------------
-------------------------------------------------8-----6----
------------------------------------------------------------

Allan Holdsworth - 54 Duncan Terrace Tab

This laid back tune is from the Secrets album and features Vinnie
Colaiuta on drums, Jimmy Johnson on bass, and Allan Holdsworth
on guitar. The soloists are: Alan Pasqua on piano, JJ on bass, and
AH on SynthAxe controlled synthesizers (a layered, plucked harp sound).

There is also a version of this tune on the There's A Heart In My Song
album on JMS by Gordon Beck & Allan Holdsworth. With its slightly
extended form featuring a piano solo and a reedy SynthAxe solo, this
version of the piece is more introspective.