Legg

You may also like:

Sponsored by Google

Tracy's Big Moment by Adrian Legg

Notes:
1. This is one of those little filler bits between the intro and the main tune - I can never get it to sound right, so I just leave it out.

2. This is actually 4 bars written as 2 because it seemed easier visually - the way I play the first half is to fret the Bminor shape with fingers 2,3, and 4 while the bass moves from B to Bflat, then change to using fingers 1,2, and 3 for the minor shape when the bass is on open A so you can then stretch your 4th finger over to reach the 6th fret on the bottom string.

Nail Talk by Adrian Legg

1.
E-|-7-----7-------7-9-----9-------9---|-0-----0-------0-12p11 11p9-9s7-|
B-|-----9-------9-------9-------9-----|-----0-------0------------------|
G-|---8-------8-------8-------8-------|---0-------0--------------------|
D-|---------0---------------0---------|---------0----------------------|
A-|-----------------------------------|--------------------------------|
D-|-0---------------0-----------------|-0----------------0-------------|

Mrs Jacks Last Stand by Adrian Legg

1.
E-|---7--7--7--7---6--6--6--6--------|---0--0--0--0---0--0--0--0--------|
B-|--7--7--7--7---7--7--7--7---------|--0--0--0--0---4--4--4--4---------|
G-|----8-----8------8-----8----------|----3-----3------4-----4----------|
D-|-------9------------9-------------|-------4------------4-------------|
A-|-0------------0-------------------|-0------------0-------------------|
E-|----------------------------------|----------------------------------|

Last Track by Adrian Legg

E++---------+--------+--------+--------+
T B++------2--+--------+-----2--+--------+
A G++*2--2----+2-------+2--2----+2-------+
B D++*--2---2-+--2---2-+--2---2-+---2-2--+
A++-0---0---+0---0---+--------+--0---0-+
E++---------+--------+3---3---+3---3---+
R1
1==================
E+--------+0-------+--------+---------++
T B+-----2--+---2----+--------+---------++
A G+2--2----+-----2--+1-------+--------*++
B D+--2---2-+--2---2-+---2-2--+0-------*++
A+--------+--------+--2---2-+--2---2--++
E+2---2---+2---2---+0---0---+0---0----++

Child by Adrian Legg

Tip: in the 5th measure of the A part, hit the 4th fret 2nd string note with your thumb as if it were any other alternating bass line; use this same pattern for the 6th measure.

intro
E+----320--0--0---------+
T B+---3---3--3--3--32-1--+
A G+--2--------0--0---0-0-+
B D+0--------------0------+
A+---------3---2---1-0--+
E+----------------------+