Living Colour

Living Under Cover Of Darkness

Bb7/4 Bbm7/4 Abmaj9 Abm6/9
|---------4--------|---------4-------|---------4-------|---------4----------|
|-----4------------|----4------------|----4------------|----6---------------|
|----7--7----------|---6--6----------|---5--5----------|---4--4-------------|
|-8----------------|-8---------------|-8---------------|-8------------------|
|------------------|-----------------|-----------------|--------------------|
|------------------|-----------------|-----------------|--------------------|

Living Colour New Jack Theme

e------------2-------------2------------------------------------------------
b-----2------3------2------3--------------------------------------17--------
g-----2------2------2------2-------16--15---14--16-----16--15-14------------
d-----2------0------2------0------------------------------------------------
a-----0-------------0-------------------------------------------------------

Living Colour Postman

Riff 1 (play 3x)

e--------------------------------I
b--------------------------------I
g--------------------------------I
D--------------------------------I
A-----4------2-3-------3---------I
E--1-----1--------1----1---------I

(4th time play..)
e--------------------------------I
b--------------------------------I
g--------------------------------I
D-----------------------(4)------I
A-----4------2-3---------4-------I
E--1-----1--------1------2-------I

Living Colour Solace Of You

#----------------------------------PLEASE NOTE---------------------------------#

#This file is the author's own work and represents their interpretation of the # #song. You may only use this file for private study, scholarship, or research.

# #------------------------------------------------------------------------------##

From: P.vdBerg@kub.nl (P.VD BERG) Subject: TAB:Solace of you-Living Colour!!!!!!

Living Colour - Love Rears Its Ugly Head

INTRO:
=======

RIFF A: (Play this twice)
B7 A7 E7
e|----------------|---------------|---------------|---------------||
B|----------------|---------------|---------------|---------------||
G|--8-----------8-|-6-------------|-7-7---7-------|---------------||
D|--7-----------7-|-5-------------|-6-6---6-------|---------------||
A|----------------|---------------|---------------|---------------||
E|----------------|---------------|---------------|---------------||
1 2 3 4 1 2 3 4 1 2 3 4 1 2 3 4