Queen

You may also like:

Sponsored by Google

Queen - Love Of My Life Tab

Words and music by Freddie Mercury

Download here Love Of My Life mp3

12 stringed guitar
|---5-5-5-5-5-5-5--3-3-3-3-3-3-3-3---1-1-1-1-1-1-1-|
|---7-7-7-7-7-7-7--5-5-5-5-3-3-3-3---1-1-1-1-1-1-1-|
|---7*7*7*7*7*7*7*-5*5*5*5*4*4*4*4*--2*2*2*2*2*2*2*|
|-0--------------------------------0---------------|
|--------------------------------------------------|
|--------------------------------------------------|

Queen - Killer Queen Tab

Words and music by Freddie Mercury


[-hold bend-] ~~~~~~~ ~~~~~~
|--------------------------------------------------------------------
|-----------------------------------------s------------10--11------10
|---12b(14)------------12--12-------12---10\9------------------12-----
|----------------------------------------------12----------------------
|--------------------------------------------------------------------
|--------------------------------------------------------------------

Queen - Death On Two Legs Tab

Words and music by Freddie Mercury


43" H H H H H H H H
|--14-14-------|--14>>>|-14-14-14-14-14-------|
|-------14-----|-------|---------------(0)----|
|---------11---|-------|------------------11v-|
|--------------|-------|----------------------|
|--------------|-------|----------------------|
|--------------|-------|----------------------|

Queen - Crazy Little Thing Called Love Tab

Words and music by Freddie Mercury
Transcription from Sept 92 of Guitar School

3 guitars here, 2 acoustics doubling each other (denoted by gtr 1) +
1 clean electric (try single coil bridge position - gtr 2). The bass
guitar part here is VERY important - it makes the song.
I'm including the electric fills - + the vsn by Gary Chapman has a
solo which looks slightly wrong.


^ = downstroke; u = upstroke
^ = Bend (as well)
.(above note) = Stacatto (v.short)
s = sustain (ie hold)
~ = vibrato

Queen - Bohemian Rhapsody Tab

Bohemian Rhapsody

Words and music by Freddie Mercury

b means bend (first show is the fret from star and second the tone you have to
reach)
s means slide (play the first position and without stopping pressure on the
string slide the finger to the second note)
h means hammer on
p means pull of
() When a number is in brackets it means that you do the bend and then you keep
the string bended and pick again.