Satriani

You may also like:

Sponsored by Google

War Tab by Satriani Joe

Intro
Q=130
4/4
Gtr I
|-0-------0-------0-------0-------|-0-------0-------0-------0--------|
|-5h6p5h6-5h6p5h6-5h6p5h6-5h6p5h6-|-5h6p5h6-5h6p5h6-5h6p5h6-5h6p5h6--|
|---------------------------------|----------------------------------|
|---------------------------------|----------------------------------|
|---------------------------------|----------------------------------|
|---------------------------------|----------------------------------|

Tears In The Rain Tab by Satriani Joe

-------0-------------0-------------0-------------0----------
-----3---3---------3---3---------6---6---------3---3--------
---5-------5-----4-------4-----7-------7-----5-------5------
-7-------------3-------------6-------------7----------------
------------------------------------------------------------
------------------------------------------------------------

(Repeat four arpeggios above)

Satch Boogie Tab by Satriani Joe

e -----------------||------------------|-----------------|-----------------|
B -----------------||o-----------------|-----------------|-----------------|
G -----------------||------------------|-------2---0-----|---2-----0-------|
D -----------------||------------------|-----------------|-------4---0-----|
A -----------0-3p0-||o-5p0---------3h5-|-5---0-------3p0-|-4---5-----------|
E -----------------||------3-5---------|-----------------|-------------2p0-|

Oriental Melody Tab by Satriani Joe

INTRO
|-------------------------------------|
|-------------------------------------|
|-------------------------------------|
|--0--0--0--0--0--0--0-0--0-0--0-0----|
|-15-15-17-17-17-17-11-9-11-9-11-9----|
|-------------------------------------|

|--------------------------------|
|--------------------------------|
|--------------------------------|
|-0-0-0-0--0-0-0-0---0---0--0----|
|-3-5-6-3--3-3-3-5---9--10--5----|
|--------------------------------|

The Mystical Pototato Head Groove Thing Tab by Satriani Joe

Intro
Q=176
4/4
Gtr I
PM----| PM----|
||-----------------------|---------|----------------------|------||
||o----------------------|---------|----------------------|-----o||
||-----------------------|---------|----------------------|------||
||----------11-(11)-12---|---------|---------12-(12)-11---|------||
||o----------7--(7)--7---|---------|----------7--(7)--7---|-----o||
||--0-0-0-0--------------|---------|-0-0-0-0--------------|------||

Midnight by Satriani Joe

E||------------------------------------------|
B||------12t-------12t-------12t-------12t---|
G||------------------------------------------|
D||---------12t-------12t-------12t-------12-|
A||----9---------9---------9---------9-------|
E||--7---------7---------7---------7---------|

Friends Tab by Satriani Joe

Tuning: Db,ab,db,gb,bb,eb

======================================================================================

[Riff 1]

eb|-------------------------------|-------------------------|
bb|----3--------------------------|----3---------------3----|
gb|------2-------------2-----2----|----------------------2--|
db|---0---------------2--2--2--2--|---4--4--/5-/7-\---0---0-|
ab|-0--------------0------0-----0-|-2-----2-/5-/7-\-0-------|
Db|-0-------/4--/5----------------|---------/5-/7-\-0-------|
**************x3*************

Flying In A Blue Dream Tab by Satriani Joe

E|-------|---------|--------------------|---------|
B|-------|---------|--------------------|---------|
G|-------|---------|--------------------|---------|
D|-------|---------|--------------------|---------|
A|--3----|--(3)----|--(3)---------------|--(3)----|
E|-------|---------|--------------------|---------|
| C E C
|
| let ring-----------------]
E|-------|---------|-----------7--7--7--|--7----| Repeat the last 2 bars
B|-------|---------|-----------9--9--7--|--7----| 11 times.

Echo Tab by Satriani Joe

-||--------------------------|---------------------------|--------------------|
-||---11-11-11-11h13---------|----11-11-11-11h13---------|--------------------|
-||10----------------10-x-10-|-10----------------10-x-10-|-x-12h13-12-v8-10---|
-||--------------------------|---------------------------|--------------------|
-||--------------------------|---------------------------|--------------------|
-||--------------------------|---------------------------|--------------------|

Devils Slide Tab by Satriani Joe

E|----------------------------|
B|----------------------------|
G|----------------------------|
D|--7/8---7/5---7/8--7/5------|
A|--5/6---5/3---5/6--5/3------|
E|----------------------------|

 

(0:31)

E|-------------------------|
B|-------------------------|
G|-------------------------|
D|-------------------------|
A|--7/8---7/5---7/8--7/5---|
E|--5/6---5/3---5/6--5/3---|

(0:37)
Riff 1 again 1 time and into Riff 3

 

(0:43)

Crushing Day Tab by Satriani Joe

Standard Tuning, Distortion

---------------------------------------------------------| (palm mute open
---------------------------------------------------------| parts)
5-x-5-0-0-0-5-x-5-0-0-0-5-x-5-0-0-0-5-x-5----------------|
5-x-5-0-0-0-4-x-4-0-0-0-5-x-5-0-0-0-4-x-4----------------|
3-x-3-0-0-0-3-x-3-0-0-0-3-x-3-0-0-0-3-x-3---------0-1-2--|
------------------------------------------0-1-2-3--------|